ISO-10303-21;
HEADER;
FILE_DESCRIPTION (( 'STEP AP203' ),
    '1' );
FILE_NAME ('960143.step',
    '2021-10-13T12:56:52',
    ( '' ),
    ( '' ),
    'SwSTEP 2.0',
    'SolidWorks 2019',
    '' );
FILE_SCHEMA (( 'CONFIG_CONTROL_DESIGN' ));
ENDSEC;

DATA;
#1 = PERSON_AND_ORGANIZATION_ROLE ( 'classification_officer' ) ;
#2 = ORGANIZATION ( 'UNSPECIFIED', 'UNSPECIFIED', '' ) ;
#3 = DIRECTION ( 'NONE',  ( 3.491481338843133355E-15, -4.327174794786742882E-16, 1.000000000000000000 ) ) ;
#4 = DIRECTION ( 'NONE',  ( 1.000000000000000000, 0.0000000000000000000, 0.0000000000000000000 ) ) ;
#5 = CARTESIAN_POINT ( 'NONE',  ( 5.900603462644894739E-14, -7.312925403189594524E-15, 16.89999999999999858 ) ) ;
#6 = COORDINATED_UNIVERSAL_TIME_OFFSET ( 1, 0, .AHEAD. ) ;
#7 =( NAMED_UNIT ( * ) SI_UNIT ( $, .STERADIAN. ) SOLID_ANGLE_UNIT ( ) );
#8 = SECURITY_CLASSIFICATION ( '', '', #47 ) ;
#9 = PERSON_AND_ORGANIZATION_ROLE ( 'design_owner' ) ;
#10 = AXIS2_PLACEMENT_3D ( 'NONE', #97, #81, #236 ) ;
#11 = APPLICATION_CONTEXT ( 'configuration controlled 3d designs of mechanical parts and assemblies' ) ;
#12 = PRODUCT_DEFINITION ( 'UNKNOWN', '', #71, #94 ) ;
#13 = APPROVAL_PERSON_ORGANIZATION ( #226, #188, #92 ) ;
#14 = CONICAL_SURFACE ( 'NONE', #72, 1.999999999999989120, 1.221730476396026388 ) ;
#15 = EDGE_CURVE ( 'NONE', #22, #22, #69, .T. ) ;
#16 = EDGE_LOOP ( 'NONE', ( #52 ) ) ;
#17 = FACE_OUTER_BOUND ( 'NONE', #201, .T. ) ;
#18 = VERTEX_POINT ( 'NONE', #60 ) ;
#19 = DIRECTION ( 'NONE',  ( 0.0000000000000000000, 1.000000000000000000, 0.0000000000000000000 ) ) ;
#20 = DIRECTION ( 'NONE',  ( -3.491481338843133355E-15, 1.224646799147353207E-16, -1.000000000000000000 ) ) ;
#21 = ORIENTED_EDGE ( 'NONE', *, *, #67, .T. ) ;
#22 = VERTEX_POINT ( 'NONE', #193 ) ;
#23 = CARTESIAN_POINT ( 'NONE',  ( 1.652033865085277678E-15, -5.794554770927312341E-17, 0.4731613045460704714 ) ) ;
#24 = APPROVAL_STATUS ( 'not_yet_approved' ) ;
#25 = CARTESIAN_POINT ( 'NONE',  ( 6.808388610744110674E-14, -8.437990849834148620E-15, 19.50000000000000000 ) ) ;
#26 = EDGE_CURVE ( 'NONE', #156, #156, #30, .T. ) ;
#27 = APPROVAL_DATE_TIME ( #246, #154 ) ;
#28 = APPROVAL_STATUS ( 'not_yet_approved' ) ;
#29 = PERSON_AND_ORGANIZATION ( #169, #2 ) ;
#30 = CIRCLE ( 'NONE', #155, 1.999999999999996669 ) ;
#31 = ADVANCED_FACE ( 'NONE', ( #43 ), #103, .T. ) ;
#32 = APPLICATION_CONTEXT ( 'configuration controlled 3d designs of mechanical parts and assemblies' ) ;
#33 = CLOSED_SHELL ( 'NONE', ( #200, #165, #31 ) ) ;
#34 = AXIS2_PLACEMENT_3D ( 'NONE', #219, #124, #19 ) ;
#35 = EDGE_LOOP ( 'NONE', ( #57 ) ) ;
#36 = DIRECTION ( 'NONE',  ( -3.491481338843133355E-15, 4.327174794786742882E-16, -1.000000000000000000 ) ) ;
#37 = DIRECTION ( 'NONE',  ( -3.851859888774492726E-31, -1.000000000000000000, -1.084202172485510350E-16 ) ) ;
#38 = FACE_OUTER_BOUND ( 'NONE', #39, .T. ) ;
#39 = EDGE_LOOP ( 'NONE', ( #198 ) ) ;
#40 = FACE_OUTER_BOUND ( 'NONE', #240, .T. ) ;
#41 = PRODUCT_DEFINITION_SHAPE ( 'NONE', 'NONE',  #12 ) ;
#42 = VERTEX_POINT ( 'NONE', #199 ) ;
#43 = FACE_OUTER_BOUND ( 'NONE', #176, .T. ) ;
#44 = COORDINATED_UNIVERSAL_TIME_OFFSET ( 1, 0, .AHEAD. ) ;
#45 = DIRECTION ( 'NONE',  ( -4.275831445896958607E-31, -1.000000000000000000, -1.224646799147353207E-16 ) ) ;
#46 = APPLICATION_PROTOCOL_DEFINITION ( 'international standard', 'config_control_design', 1994, #11 ) ;
#47 = SECURITY_CLASSIFICATION_LEVEL ( 'unclassified' ) ;
#48 = COORDINATED_UNIVERSAL_TIME_OFFSET ( 1, 0, .AHEAD. ) ;
#49 = CC_DESIGN_PERSON_AND_ORGANIZATION_ASSIGNMENT ( #66, #9, ( #135 ) ) ;
#50 = AXIS2_PLACEMENT_3D ( 'NONE', #122, #173, #197 ) ;
#51 = MANIFOLD_SOLID_BREP ( 'Corps-Déplacer/Copier1[2]', #33 ) ;
#52 = ORIENTED_EDGE ( 'NONE', *, *, #26, .F. ) ;
#53 = DIRECTION ( 'NONE',  ( -3.491481338843133355E-15, 1.224646799147353207E-16, -1.000000000000000000 ) ) ;
#54 = ORIENTED_EDGE ( 'NONE', *, *, #26, .T. ) ;
#55 = AXIS2_PLACEMENT_3D ( 'NONE', #235, #20, #100 ) ;
#56 = FACE_OUTER_BOUND ( 'NONE', #245, .T. ) ;
#57 = ORIENTED_EDGE ( 'NONE', *, *, #241, .T. ) ;
#58 = CYLINDRICAL_SURFACE ( 'NONE', #111, 1.300000000000002931 ) ;
#59 = LOCAL_TIME ( 14, 56, 52.00000000000000000, #6 ) ;
#60 = CARTESIAN_POINT ( 'NONE',  ( 6.808388610744110674E-14, 1.299999999999997380, 19.50000000000000000 ) ) ;
#61 = DIRECTION ( 'NONE',  ( -3.491481338843133355E-15, 1.224646799147353207E-16, -1.000000000000000000 ) ) ;
#62 = APPROVAL_DATE_TIME ( #68, #188 ) ;
#63 = ORIENTED_EDGE ( 'NONE', *, *, #67, .F. ) ;
#64 = CARTESIAN_POINT ( 'NONE',  ( 5.900603462644894739E-14, 1.499759782661847755E-32, 16.89999999999999858 ) ) ;
#65 = CC_DESIGN_APPROVAL ( #132, ( #8 ) ) ;
#66 = PERSON_AND_ORGANIZATION ( #169, #2 ) ;
#67 = EDGE_CURVE ( 'NONE', #18, #18, #251, .T. ) ;
#68 = DATE_AND_TIME ( #168, #59 ) ;
#69 = CIRCLE ( 'NONE', #257, 1.999999999999994005 ) ;
#70 = COORDINATED_UNIVERSAL_TIME_OFFSET ( 1, 0, .AHEAD. ) ;
#71 = PRODUCT_DEFINITION_FORMATION_WITH_SPECIFIED_SOURCE ( 'ANY', '', #135, .NOT_KNOWN. ) ;
#72 = AXIS2_PLACEMENT_3D ( 'NONE', #143, #216, #37 ) ;
#73 = EDGE_CURVE ( 'NONE', #145, #145, #171, .T. ) ;
#74 = CIRCLE ( 'NONE', #34, 1.499999999999996447 ) ;
#75 = AXIS2_PLACEMENT_3D ( 'NONE', #215, #123, #140 ) ;
#76 = CIRCLE ( 'NONE', #55, 1.300000000000002931 ) ;
#77 = VERTEX_POINT ( 'NONE', #205 ) ;
#78 = AXIS2_PLACEMENT_3D ( 'NONE', #161, #82, #237 ) ;
#79 = CARTESIAN_POINT ( 'NONE',  ( 5.900603462644894739E-14, 1.499759782661847755E-32, 16.89999999999999858 ) ) ;
#80 = EDGE_CURVE ( 'NONE', #42, #42, #227, .T. ) ;
#81 = DIRECTION ( 'NONE',  ( 3.491481338843133355E-15, -4.327174794786742882E-16, 1.000000000000000000 ) ) ;
#82 = DIRECTION ( 'NONE',  ( -3.491481338843133355E-15, 4.327174794786742882E-16, -1.000000000000000000 ) ) ;
#83 = EDGE_LOOP ( 'NONE', ( #255 ) ) ;
#84 = CARTESIAN_POINT ( 'NONE',  ( 2.147261023388527077E-13, 1.999999999999989120, 61.50000000000000000 ) ) ;
#85 = FACE_OUTER_BOUND ( 'NONE', #172, .T. ) ;
#86 = CALENDAR_DATE ( 2021, 13, 10 ) ;
#87 = CARTESIAN_POINT ( 'NONE',  ( 2.147261023388527077E-13, -7.531577814756222656E-15, 61.50000000000000000 ) ) ;
#88 = DIRECTION ( 'NONE',  ( -3.491481338843133355E-15, 1.224646799147353207E-16, -1.000000000000000000 ) ) ;
#89 = PERSON_AND_ORGANIZATION_ROLE ( 'creator' ) ;
#90 = LOCAL_TIME ( 14, 56, 52.00000000000000000, #220 ) ;
#91 = CARTESIAN_POINT ( 'NONE',  ( 5.900603462644894739E-14, -1.300000000000010258, 16.89999999999999858 ) ) ;
#92 = APPROVAL_ROLE ( '' ) ;
#93 = AXIS2_PLACEMENT_3D ( 'NONE', #157, #53, #212 ) ;
#94 = DESIGN_CONTEXT ( 'detailed design', #11, 'design' ) ;
#95 = ADVANCED_FACE ( 'NONE', ( #85 ), #247, .F. ) ;
#96 = CYLINDRICAL_SURFACE ( 'NONE', #50, 1.999999999999994005 ) ;
#97 = CARTESIAN_POINT ( 'NONE',  ( 8.418001124626891228E-14, -1.043286752924229507E-14, 24.11011346667002542 ) ) ;
#98 = CARTESIAN_POINT ( 'NONE',  ( 0.0000000000000000000, 0.0000000000000000000, 0.0000000000000000000 ) ) ;
#99 = ORIENTED_EDGE ( 'NONE', *, *, #80, .F. ) ;
#100 = DIRECTION ( 'NONE',  ( 0.0000000000000000000, -1.000000000000000000, 0.0000000000000000000 ) ) ;
#101 = PRODUCT_RELATED_PRODUCT_CATEGORY ( 'detail', '', ( #135 ) ) ;
#102 = VERTEX_POINT ( 'NONE', #180 ) ;
#103 = PLANE ( 'NONE',  #149 ) ;
#104 = APPROVAL_ROLE ( '' ) ;
#105 = DIRECTION ( 'NONE',  ( -3.491481338843133355E-15, 1.224646799147353207E-16, -1.000000000000000000 ) ) ;
#106 = PERSON_AND_ORGANIZATION ( #169, #2 ) ;
#107 = CC_DESIGN_PERSON_AND_ORGANIZATION_ASSIGNMENT ( #133, #89, ( #71 ) ) ;
#108 = APPROVAL_STATUS ( 'not_yet_approved' ) ;
#109 = DATE_TIME_ROLE ( 'creation_date' ) ;
#110 = EDGE_CURVE ( 'NONE', #102, #102, #74, .T. ) ;
#111 = AXIS2_PLACEMENT_3D ( 'NONE', #98, #36, #238 ) ;
#112 = ADVANCED_FACE ( 'NONE', ( #119 ), #195, .F. ) ;
#113 = DATE_AND_TIME ( #232, #211 ) ;
#114 = AXIS2_PLACEMENT_3D ( 'NONE', #163, #61, #146 ) ;
#115 = ORIENTED_EDGE ( 'NONE', *, *, #15, .T. ) ;
#116 = FACE_BOUND ( 'NONE', #190, .T. ) ;
#117 = ORIENTED_EDGE ( 'NONE', *, *, #241, .F. ) ;
#118 = DIRECTION ( 'NONE',  ( -3.491481338843133355E-15, 4.327174794786742882E-16, -1.000000000000000000 ) ) ;
#119 = FACE_OUTER_BOUND ( 'NONE', #35, .T. ) ;
#120 = EDGE_LOOP ( 'NONE', ( #21 ) ) ;
#121 = CC_DESIGN_PERSON_AND_ORGANIZATION_ASSIGNMENT ( #153, #207, ( #71 ) ) ;
#122 = CARTESIAN_POINT ( 'NONE',  ( 0.0000000000000000000, 0.0000000000000000000, 0.0000000000000000000 ) ) ;
#123 = DIRECTION ( 'NONE',  ( -3.491481338843133355E-15, 4.327174794786742882E-16, -1.000000000000000000 ) ) ;
#124 = DIRECTION ( 'NONE',  ( -3.491481338843133355E-15, 1.224646799147353207E-16, -1.000000000000000000 ) ) ;
#125 = CONICAL_SURFACE ( 'NONE', #10, 2.500000000000004441, 0.2617993877991506291 ) ;
#126 = DATE_TIME_ROLE ( 'classification_date' ) ;
#127 = DIRECTION ( 'NONE',  ( -3.491481338843133355E-15, 1.224646799147353207E-16, -1.000000000000000000 ) ) ;
#128 = CC_DESIGN_SECURITY_CLASSIFICATION ( #8, ( #71 ) ) ;
#129 = PERSON_AND_ORGANIZATION ( #169, #2 ) ;
#130 = CALENDAR_DATE ( 2021, 13, 10 ) ;
#131 = APPROVAL_PERSON_ORGANIZATION ( #129, #154, #228 ) ;
#132 = APPROVAL ( #24, 'UNSPECIFIED' ) ;
#133 = PERSON_AND_ORGANIZATION ( #169, #2 ) ;
#134 = SHAPE_DEFINITION_REPRESENTATION ( #41, #214 ) ;
#135 = PRODUCT ( '960143', '960143', '', ( #224 ) ) ;
#136 = ORIENTED_EDGE ( 'NONE', *, *, #15, .F. ) ;
#137 = CC_DESIGN_PERSON_AND_ORGANIZATION_ASSIGNMENT ( #29, #1, ( #8 ) ) ;
#138 = DIRECTION ( 'NONE',  ( 3.491481338843133355E-15, -1.224646799147353207E-16, 1.000000000000000000 ) ) ;
#139 = ORIENTED_EDGE ( 'NONE', *, *, #110, .F. ) ;
#140 = DIRECTION ( 'NONE',  ( 0.0000000000000000000, 1.000000000000000000, 0.0000000000000000000 ) ) ;
#141 = FACE_OUTER_BOUND ( 'NONE', #120, .T. ) ;
#142 = EDGE_LOOP ( 'NONE', ( #181 ) ) ;
#143 = CARTESIAN_POINT ( 'NONE',  ( 2.541590561669638548E-15, -8.914699647580411499E-17, 0.7279404685324105673 ) ) ;
#144 = APPROVAL_PERSON_ORGANIZATION ( #203, #132, #104 ) ;
#145 = VERTEX_POINT ( 'NONE', #218 ) ;
#146 = DIRECTION ( 'NONE',  ( 4.275831445896958607E-31, 1.000000000000000000, 1.224646799147353207E-16 ) ) ;
#147 = DIRECTION ( 'NONE',  ( 0.0000000000000000000, 0.0000000000000000000, 1.000000000000000000 ) ) ;
#148 = ORIENTED_EDGE ( 'NONE', *, *, #189, .T. ) ;
#149 = AXIS2_PLACEMENT_3D ( 'NONE', #64, #164, #45 ) ;
#150 = CARTESIAN_POINT ( 'NONE',  ( 0.0000000000000000000, 0.0000000000000000000, 0.0000000000000000000 ) ) ;
#151 = ADVANCED_FACE ( 'NONE', ( #175, #177 ), #202, .T. ) ;
#152 = DIRECTION ( 'NONE',  ( -3.491481338843133355E-15, 4.327174794786742882E-16, -1.000000000000000000 ) ) ;
#153 = PERSON_AND_ORGANIZATION ( #169, #2 ) ;
#154 = APPROVAL ( #108, 'UNSPECIFIED' ) ;
#155 = AXIS2_PLACEMENT_3D ( 'NONE', #87, #127, #204 ) ;
#156 = VERTEX_POINT ( 'NONE', #84 ) ;
#157 = CARTESIAN_POINT ( 'NONE',  ( 2.164718430082742680E-13, -7.592810154713590230E-15, 62.00000000000000000 ) ) ;
#158 = CC_DESIGN_APPROVAL ( #154, ( #12 ) ) ;
#159 = FACE_OUTER_BOUND ( 'NONE', #142, .T. ) ;
#160 = ADVANCED_FACE ( 'NONE', ( #116, #259 ), #125, .T. ) ;
#161 = CARTESIAN_POINT ( 'NONE',  ( 0.0000000000000000000, 0.0000000000000000000, 0.0000000000000000000 ) ) ;
#162 = CARTESIAN_POINT ( 'NONE',  ( 6.808388610744110674E-14, -8.239936510889833698E-15, 19.50000000000000000 ) ) ;
#163 = CARTESIAN_POINT ( 'NONE',  ( 2.164718430082742680E-13, 1.124819836996379248E-32, 62.00000000000000000 ) ) ;
#164 = DIRECTION ( 'NONE',  ( 3.491481338843133355E-15, -1.224646799147353207E-16, 1.000000000000000000 ) ) ;
#165 = ADVANCED_FACE ( 'NONE', ( #159, #191 ), #261, .T. ) ;
#166 = DIRECTION ( 'NONE',  ( 0.0000000000000000000, -1.000000000000000000, 0.0000000000000000000 ) ) ;
#167 = CALENDAR_DATE ( 2021, 13, 10 ) ;
#168 = CALENDAR_DATE ( 2021, 13, 10 ) ;
#169 = PERSON ( 'UNSPECIFIED', 'UNSPECIFIED', 'UNSPECIFIED', ('UNSPECIFIED'), ('UNSPECIFIED'), ('UNSPECIFIED') ) ;
#170 = ADVANCED_FACE ( 'NONE', ( #141, #56 ), #58, .T. ) ;
#171 = CIRCLE ( 'NONE', #239, 1.300000000000002931 ) ;
#172 = EDGE_LOOP ( 'NONE', ( #139 ) ) ;
#173 = DIRECTION ( 'NONE',  ( -3.491481338843133355E-15, 1.224646799147353207E-16, -1.000000000000000000 ) ) ;
#174 = ORIENTED_EDGE ( 'NONE', *, *, #189, .F. ) ;
#175 = FACE_OUTER_BOUND ( 'NONE', #16, .T. ) ;
#176 = EDGE_LOOP ( 'NONE', ( #99 ) ) ;
#177 = FACE_BOUND ( 'NONE', #222, .T. ) ;
#178 = FACE_OUTER_BOUND ( 'NONE', #260, .T. ) ;
#179 = DIRECTION ( 'NONE',  ( 0.0000000000000000000, -1.000000000000000000, 0.0000000000000000000 ) ) ;
#180 = CARTESIAN_POINT ( 'NONE',  ( 2.164718430082742680E-13, 1.499999999999988676, 62.00000000000000000 ) ) ;
#181 = ORIENTED_EDGE ( 'NONE', *, *, #80, .T. ) ;
#182 = AXIS2_PLACEMENT_3D ( 'NONE', #150, #147, #4 ) ;
#183 = DIRECTION ( 'NONE',  ( -4.444453717816688354E-31, -1.000000000000000000, -1.251002506714040828E-16 ) ) ;
#184 = PERSON_AND_ORGANIZATION_ROLE ( 'creator' ) ;
#185 =( NAMED_UNIT ( * ) PLANE_ANGLE_UNIT ( ) SI_UNIT ( $, .RADIAN. ) );
#186 = APPLICATION_PROTOCOL_DEFINITION ( 'international standard', 'config_control_design', 1994, #32 ) ;
#187 = CLOSED_SHELL ( 'NONE', ( #209, #151, #95, #170, #160, #262, #112 ) ) ;
#188 = APPROVAL ( #28, 'UNSPECIFIED' ) ;
#189 = EDGE_CURVE ( 'NONE', #77, #77, #223, .T. ) ;
#190 = EDGE_LOOP ( 'NONE', ( #174 ) ) ;
#191 = FACE_OUTER_BOUND ( 'NONE', #83, .T. ) ;
#192 = EDGE_LOOP ( 'NONE', ( #148 ) ) ;
#193 = CARTESIAN_POINT ( 'NONE',  ( 7.766481837114822411E-14, -2.000000000000003553, 22.24408806288555596 ) ) ;
#194 = CC_DESIGN_DATE_AND_TIME_ASSIGNMENT ( #244, #126, ( #8 ) ) ;
#195 = PLANE ( 'NONE',  #210 ) ;
#196 = EDGE_LOOP ( 'NONE', ( #136 ) ) ;
#197 = DIRECTION ( 'NONE',  ( 4.275831445896959482E-31, 1.000000000000000000, 1.224646799147353207E-16 ) ) ;
#198 = ORIENTED_EDGE ( 'NONE', *, *, #73, .T. ) ;
#199 = CARTESIAN_POINT ( 'NONE',  ( 5.900603462644894739E-14, -1.300000000000010258, 16.89999999999999858 ) ) ;
#200 = ADVANCED_FACE ( 'NONE', ( #38 ), #14, .T. ) ;
#201 = EDGE_LOOP ( 'NONE', ( #54 ) ) ;
#202 = CONICAL_SURFACE ( 'NONE', #93, 1.499999999999996447, 0.7853981633974480570 ) ;
#203 = PERSON_AND_ORGANIZATION ( #169, #2 ) ;
#204 = DIRECTION ( 'NONE',  ( 0.0000000000000000000, 1.000000000000000000, 0.0000000000000000000 ) ) ;
#205 = CARTESIAN_POINT ( 'NONE',  ( 6.898754797355375150E-14, 1.334074173710929179, 19.75881904510252340 ) ) ;
#206 = DATE_AND_TIME ( #130, #230 ) ;
#207 = PERSON_AND_ORGANIZATION_ROLE ( 'design_supplier' ) ;
#208 = CC_DESIGN_APPROVAL ( #188, ( #71 ) ) ;
#209 = ADVANCED_FACE ( 'NONE', ( #40, #17 ), #96, .T. ) ;
#210 = AXIS2_PLACEMENT_3D ( 'NONE', #79, #138, #258 ) ;
#211 = LOCAL_TIME ( 14, 56, 52.00000000000000000, #70 ) ;
#212 = DIRECTION ( 'NONE',  ( 0.0000000000000000000, 1.000000000000000000, 0.0000000000000000000 ) ) ;
#213 = FACE_OUTER_BOUND ( 'NONE', #192, .T. ) ;
#214 = ADVANCED_BREP_SHAPE_REPRESENTATION ( '960143', ( #225, #51, #182 ), #253 ) ;
#215 = CARTESIAN_POINT ( 'NONE',  ( 6.898754797355375150E-14, -8.549986374671989054E-15, 19.75881904510252340 ) ) ;
#216 = DIRECTION ( 'NONE',  ( 3.491481338843133355E-15, -1.224646799147353207E-16, 1.000000000000000000 ) ) ;
#217 = CC_DESIGN_PERSON_AND_ORGANIZATION_ASSIGNMENT ( #106, #184, ( #12 ) ) ;
#218 = CARTESIAN_POINT ( 'NONE',  ( 1.652033865085277284E-15, -1.300000000000002931, 0.4731613045460703049 ) ) ;
#219 = CARTESIAN_POINT ( 'NONE',  ( 2.164718430082742680E-13, -7.592810154713590230E-15, 62.00000000000000000 ) ) ;
#220 = COORDINATED_UNIVERSAL_TIME_OFFSET ( 1, 0, .AHEAD. ) ;
#221 = UNCERTAINTY_MEASURE_WITH_UNIT (LENGTH_MEASURE( 1.000000000000000082E-05 ), #248, 'distance_accuracy_value', 'NONE');
#222 = EDGE_LOOP ( 'NONE', ( #256 ) ) ;
#223 = CIRCLE ( 'NONE', #75, 1.334074173710937616 ) ;
#224 = MECHANICAL_CONTEXT ( 'NONE', #32, 'mechanical' ) ;
#225 = MANIFOLD_SOLID_BREP ( 'Corps-Déplacer/Copier1[1]', #187 ) ;
#226 = PERSON_AND_ORGANIZATION ( #169, #2 ) ;
#227 = CIRCLE ( 'NONE', #252, 1.300000000000002931 ) ;
#228 = APPROVAL_ROLE ( '' ) ;
#229 = TOROIDAL_SURFACE ( 'NONE', #254, 2.300000000000005596, 1.000000000000000222 ) ;
#230 = LOCAL_TIME ( 14, 56, 52.00000000000000000, #48 ) ;
#231 = AXIS2_PLACEMENT_3D ( 'NONE', #25, #152, #263 ) ;
#232 = CALENDAR_DATE ( 2021, 13, 10 ) ;
#233 = LOCAL_TIME ( 14, 56, 52.00000000000000000, #44 ) ;
#234 = APPROVAL_DATE_TIME ( #113, #132 ) ;
#235 = CARTESIAN_POINT ( 'NONE',  ( 5.900603462644894739E-14, -7.312925403189594524E-15, 16.89999999999999858 ) ) ;
#236 = DIRECTION ( 'NONE',  ( 0.0000000000000000000, -1.000000000000000000, 0.0000000000000000000 ) ) ;
#237 = DIRECTION ( 'NONE',  ( 1.510825004591028030E-30, 1.000000000000000000, 4.327174794786742882E-16 ) ) ;
#238 = DIRECTION ( 'NONE',  ( 1.510825004591028030E-30, 1.000000000000000000, 4.327174794786742882E-16 ) ) ;
#239 = AXIS2_PLACEMENT_3D ( 'NONE', #23, #105, #183 ) ;
#240 = EDGE_LOOP ( 'NONE', ( #115 ) ) ;
#241 = EDGE_CURVE ( 'NONE', #250, #250, #76, .T. ) ;
#242 = DIRECTION ( 'NONE',  ( 1.510825004591027679E-30, 1.000000000000000000, 4.327174794786742882E-16 ) ) ;
#243 = CARTESIAN_POINT ( 'NONE',  ( 7.766481837114822411E-14, -9.625405719873502536E-15, 22.24408806288555596 ) ) ;
#244 = DATE_AND_TIME ( #86, #233 ) ;
#245 = EDGE_LOOP ( 'NONE', ( #117 ) ) ;
#246 = DATE_AND_TIME ( #167, #90 ) ;
#247 = PLANE ( 'NONE',  #114 ) ;
#248 =( LENGTH_UNIT ( ) NAMED_UNIT ( * ) SI_UNIT ( .MILLI., .METRE. ) );
#249 = CC_DESIGN_DATE_AND_TIME_ASSIGNMENT ( #206, #109, ( #12 ) ) ;
#250 = VERTEX_POINT ( 'NONE', #91 ) ;
#251 = CIRCLE ( 'NONE', #231, 1.300000000000005818 ) ;
#252 = AXIS2_PLACEMENT_3D ( 'NONE', #5, #88, #166 ) ;
#253 =( GEOMETRIC_REPRESENTATION_CONTEXT ( 3 ) GLOBAL_UNCERTAINTY_ASSIGNED_CONTEXT ( ( #221 ) ) GLOBAL_UNIT_ASSIGNED_CONTEXT ( ( #248, #185, #7 ) ) REPRESENTATION_CONTEXT ( 'NONE', 'WORKASPACE' ) );
#254 = AXIS2_PLACEMENT_3D ( 'NONE', #162, #118, #242 ) ;
#255 = ORIENTED_EDGE ( 'NONE', *, *, #73, .F. ) ;
#256 = ORIENTED_EDGE ( 'NONE', *, *, #110, .T. ) ;
#257 = AXIS2_PLACEMENT_3D ( 'NONE', #243, #3, #179 ) ;
#258 = DIRECTION ( 'NONE',  ( -4.275831445896958607E-31, -1.000000000000000000, -1.224646799147353207E-16 ) ) ;
#259 = FACE_OUTER_BOUND ( 'NONE', #196, .T. ) ;
#260 = EDGE_LOOP ( 'NONE', ( #63 ) ) ;
#261 = CYLINDRICAL_SURFACE ( 'NONE', #78, 1.300000000000002931 ) ;
#262 = ADVANCED_FACE ( 'NONE', ( #178, #213 ), #229, .F. ) ;
#263 = DIRECTION ( 'NONE',  ( 0.0000000000000000000, 1.000000000000000000, 0.0000000000000000000 ) ) ;
ENDSEC;
END-ISO-10303-21;
