ISO-10303-21;
HEADER;
FILE_DESCRIPTION (( 'STEP AP203' ),
    '1' );
FILE_NAME ('960142.step',
    '2021-10-13T12:56:50',
    ( '' ),
    ( '' ),
    'SwSTEP 2.0',
    'SolidWorks 2019',
    '' );
FILE_SCHEMA (( 'CONFIG_CONTROL_DESIGN' ));
ENDSEC;

DATA;
#1 = EDGE_LOOP ( 'NONE', ( #56 ) ) ;
#2 = APPROVAL_ROLE ( '' ) ;
#3 = DATE_AND_TIME ( #96, #110 ) ;
#4 = ADVANCED_FACE ( 'NONE', ( #252, #208 ), #145, .T. ) ;
#5 = AXIS2_PLACEMENT_3D ( 'NONE', #149, #213, #211 ) ;
#6 = EDGE_LOOP ( 'NONE', ( #137 ) ) ;
#7 = PLANE ( 'NONE',  #31 ) ;
#8 = DIRECTION ( 'NONE',  ( 1.510825004591027855E-30, 1.000000000000000000, 4.327174794786743375E-16 ) ) ;
#9 = ADVANCED_FACE ( 'NONE', ( #106, #228 ), #45, .T. ) ;
#10 = PLANE ( 'NONE',  #30 ) ;
#11 = CIRCLE ( 'NONE', #46, 1.250000000000005995 ) ;
#12 = EDGE_LOOP ( 'NONE', ( #90 ) ) ;
#13 = VERTEX_POINT ( 'NONE', #37 ) ;
#14 = DIRECTION ( 'NONE',  ( 0.0000000000000000000, -1.000000000000000000, 0.0000000000000000000 ) ) ;
#15 = ORGANIZATION ( 'UNSPECIFIED', 'UNSPECIFIED', '' ) ;
#16 = COORDINATED_UNIVERSAL_TIME_OFFSET ( 1, 0, .AHEAD. ) ;
#17 = CARTESIAN_POINT ( 'NONE',  ( 7.587230072147008191E-14, -9.403249665175309314E-15, 21.73069060326399793 ) ) ;
#18 =( LENGTH_UNIT ( ) NAMED_UNIT ( * ) SI_UNIT ( .MILLI., .METRE. ) );
#19 = DIRECTION ( 'NONE',  ( 0.0000000000000000000, 1.000000000000000000, 0.0000000000000000000 ) ) ;
#20 = EDGE_LOOP ( 'NONE', ( #223 ) ) ;
#21 = COORDINATED_UNIVERSAL_TIME_OFFSET ( 1, 0, .AHEAD. ) ;
#22 = APPROVAL_STATUS ( 'not_yet_approved' ) ;
#23 = EDGE_LOOP ( 'NONE', ( #59 ) ) ;
#24 = CARTESIAN_POINT ( 'NONE',  ( 0.0000000000000000000, 0.0000000000000000000, 0.0000000000000000000 ) ) ;
#25 = CONICAL_SURFACE ( 'NONE', #262, 1.999999999999989120, 1.221730476396026388 ) ;
#26 = DIRECTION ( 'NONE',  ( -3.491481338843133355E-15, 4.327174794786742882E-16, -1.000000000000000000 ) ) ;
#27 = DIRECTION ( 'NONE',  ( -3.491481338843133355E-15, 1.224646799147353207E-16, -1.000000000000000000 ) ) ;
#28 = DIRECTION ( 'NONE',  ( -4.275831445896958607E-31, -1.000000000000000000, -1.224646799147353207E-16 ) ) ;
#29 = DIRECTION ( 'NONE',  ( 4.275831445896959482E-31, 1.000000000000000000, 1.224646799147353207E-16 ) ) ;
#30 = AXIS2_PLACEMENT_3D ( 'NONE', #229, #125, #28 ) ;
#31 = AXIS2_PLACEMENT_3D ( 'NONE', #233, #27, #66 ) ;
#32 = CC_DESIGN_DATE_AND_TIME_ASSIGNMENT ( #44, #121, ( #88 ) ) ;
#33 = DIRECTION ( 'NONE',  ( 0.0000000000000000000, -1.000000000000000000, 0.0000000000000000000 ) ) ;
#34 = APPROVAL_DATE_TIME ( #72, #221 ) ;
#35 = SHAPE_DEFINITION_REPRESENTATION ( #115, #62 ) ;
#36 = CARTESIAN_POINT ( 'NONE',  ( 5.691114582314308000E-14, -1.250000000000010214, 16.30000000000000071 ) ) ;
#37 = CARTESIAN_POINT ( 'NONE',  ( 2.164718430082742680E-13, 1.499999999999988676, 62.00000000000000000 ) ) ;
#38 = ORIENTED_EDGE ( 'NONE', *, *, #192, .F. ) ;
#39 = CARTESIAN_POINT ( 'NONE',  ( 2.541590561669638548E-15, -8.914699647580411499E-17, 0.7279404685324105673 ) ) ;
#40 = CALENDAR_DATE ( 2021, 13, 10 ) ;
#41 = EDGE_LOOP ( 'NONE', ( #135 ) ) ;
#42 = CLOSED_SHELL ( 'NONE', ( #4, #243, #87, #63, #9, #95, #132 ) ) ;
#43 = CC_DESIGN_APPROVAL ( #108, ( #170 ) ) ;
#44 = DATE_AND_TIME ( #119, #105 ) ;
#45 = CONICAL_SURFACE ( 'NONE', #5, 2.500000000000004441, 0.2617993877991504625 ) ;
#46 = AXIS2_PLACEMENT_3D ( 'NONE', #172, #67, #191 ) ;
#47 = CARTESIAN_POINT ( 'NONE',  ( 6.563984917025090708E-14, -8.239936510889833698E-15, 18.80000000000000071 ) ) ;
#48 = DIRECTION ( 'NONE',  ( -3.491481338843133355E-15, 1.224646799147353207E-16, -1.000000000000000000 ) ) ;
#49 = FACE_OUTER_BOUND ( 'NONE', #77, .T. ) ;
#50 = DIRECTION ( 'NONE',  ( -4.275831445896958607E-31, -1.000000000000000000, -1.224646799147353207E-16 ) ) ;
#51 = AXIS2_PLACEMENT_3D ( 'NONE', #85, #107, #190 ) ;
#52 = APPLICATION_PROTOCOL_DEFINITION ( 'international standard', 'config_control_design', 1994, #79 ) ;
#53 = ADVANCED_FACE ( 'NONE', ( #251, #171 ), #187, .T. ) ;
#54 = VERTEX_POINT ( 'NONE', #131 ) ;
#55 = APPROVAL_PERSON_ORGANIZATION ( #183, #153, #2 ) ;
#56 = ORIENTED_EDGE ( 'NONE', *, *, #113, .F. ) ;
#57 = DIRECTION ( 'NONE',  ( -3.491481338843133355E-15, 1.224646799147353207E-16, -1.000000000000000000 ) ) ;
#58 = PERSON_AND_ORGANIZATION ( #215, #15 ) ;
#59 = ORIENTED_EDGE ( 'NONE', *, *, #202, .F. ) ;
#60 = PERSON_AND_ORGANIZATION_ROLE ( 'creator' ) ;
#61 = DATE_AND_TIME ( #136, #83 ) ;
#62 = ADVANCED_BREP_SHAPE_REPRESENTATION ( '960142', ( #82, #261, #227 ), #255 ) ;
#63 = ADVANCED_FACE ( 'NONE', ( #232, #189 ), #151, .T. ) ;
#64 = CIRCLE ( 'NONE', #154, 1.250000000000003109 ) ;
#65 = CARTESIAN_POINT ( 'NONE',  ( 0.0000000000000000000, 0.0000000000000000000, 0.0000000000000000000 ) ) ;
#66 = DIRECTION ( 'NONE',  ( 4.275831445896958607E-31, 1.000000000000000000, 1.224646799147353207E-16 ) ) ;
#67 = DIRECTION ( 'NONE',  ( -3.491481338843133355E-15, 4.327174794786742882E-16, -1.000000000000000000 ) ) ;
#68 = DIRECTION ( 'NONE',  ( -4.622231866529354662E-31, -1.000000000000000000, -1.301042606982602116E-16 ) ) ;
#69 = ORIENTED_EDGE ( 'NONE', *, *, #249, .T. ) ;
#70 = DIRECTION ( 'NONE',  ( 1.000000000000000000, 0.0000000000000000000, 0.0000000000000000000 ) ) ;
#71 = ADVANCED_FACE ( 'NONE', ( #124 ), #10, .T. ) ;
#72 = DATE_AND_TIME ( #163, #217 ) ;
#73 = FACE_OUTER_BOUND ( 'NONE', #20, .T. ) ;
#74 = DIRECTION ( 'NONE',  ( 0.0000000000000000000, -1.000000000000000000, 0.0000000000000000000 ) ) ;
#75 = CONICAL_SURFACE ( 'NONE', #235, 1.499999999999996447, 0.7853981633974480570 ) ;
#76 = PERSON_AND_ORGANIZATION_ROLE ( 'classification_officer' ) ;
#77 = EDGE_LOOP ( 'NONE', ( #69 ) ) ;
#78 = PERSON_AND_ORGANIZATION ( #215, #15 ) ;
#79 = APPLICATION_CONTEXT ( 'configuration controlled 3d designs of mechanical parts and assemblies' ) ;
#80 = PERSON_AND_ORGANIZATION_ROLE ( 'creator' ) ;
#81 = CIRCLE ( 'NONE', #224, 1.250000000000003109 ) ;
#82 = MANIFOLD_SOLID_BREP ( 'Corps-Déplacer/Copier1[1]', #42 ) ;
#83 = LOCAL_TIME ( 14, 56, 50.00000000000000000, #245 ) ;
#84 = CC_DESIGN_PERSON_AND_ORGANIZATION_ASSIGNMENT ( #167, #248, ( #170 ) ) ;
#85 = CARTESIAN_POINT ( 'NONE',  ( 2.164718430082742680E-13, -7.592810154713590230E-15, 62.00000000000000000 ) ) ;
#86 = CARTESIAN_POINT ( 'NONE',  ( 1.588494101043536517E-15, -5.571687279737802177E-17, 0.4549627928327601434 ) ) ;
#87 = ADVANCED_FACE ( 'NONE', ( #176 ), #7, .F. ) ;
#88 = SECURITY_CLASSIFICATION ( '', '', #166 ) ;
#89 = CARTESIAN_POINT ( 'NONE',  ( 6.654351103636356446E-14, -8.247084139036918314E-15, 19.05881904510252411 ) ) ;
#90 = ORIENTED_EDGE ( 'NONE', *, *, #173, .F. ) ;
#91 = DESIGN_CONTEXT ( 'detailed design', #199, 'design' ) ;
#92 = VERTEX_POINT ( 'NONE', #200 ) ;
#93 = APPLICATION_PROTOCOL_DEFINITION ( 'international standard', 'config_control_design', 1994, #199 ) ;
#94 = VERTEX_POINT ( 'NONE', #177 ) ;
#95 = ADVANCED_FACE ( 'NONE', ( #144, #253 ), #143, .F. ) ;
#96 = CALENDAR_DATE ( 2021, 13, 10 ) ;
#97 = DATE_AND_TIME ( #40, #206 ) ;
#98 = APPROVAL_ROLE ( '' ) ;
#99 = CC_DESIGN_DATE_AND_TIME_ASSIGNMENT ( #3, #203, ( #148 ) ) ;
#100 = CIRCLE ( 'NONE', #122, 1.284074173710938016 ) ;
#101 = EDGE_LOOP ( 'NONE', ( #204 ) ) ;
#102 = EDGE_LOOP ( 'NONE', ( #38 ) ) ;
#103 = PRODUCT_RELATED_PRODUCT_CATEGORY ( 'detail', '', ( #236 ) ) ;
#104 = PLANE ( 'NONE',  #139 ) ;
#105 = LOCAL_TIME ( 14, 56, 50.00000000000000000, #247 ) ;
#106 = FACE_BOUND ( 'NONE', #1, .T. ) ;
#107 = DIRECTION ( 'NONE',  ( -3.491481338843133355E-15, 1.224646799147353207E-16, -1.000000000000000000 ) ) ;
#108 = APPROVAL ( #222, 'UNSPECIFIED' ) ;
#109 = DIRECTION ( 'NONE',  ( -3.491481338843133355E-15, 4.327174794786742882E-16, -1.000000000000000000 ) ) ;
#110 = LOCAL_TIME ( 14, 56, 50.00000000000000000, #225 ) ;
#111 = DIRECTION ( 'NONE',  ( 1.510825004591027679E-30, 1.000000000000000000, 4.327174794786742882E-16 ) ) ;
#112 = CARTESIAN_POINT ( 'NONE',  ( 2.164718430082742680E-13, -7.592810154713590230E-15, 62.00000000000000000 ) ) ;
#113 = EDGE_CURVE ( 'NONE', #94, #94, #100, .T. ) ;
#114 = DIRECTION ( 'NONE',  ( -3.491481338843133355E-15, 1.224646799147353207E-16, -1.000000000000000000 ) ) ;
#115 = PRODUCT_DEFINITION_SHAPE ( 'NONE', 'NONE',  #148 ) ;
#116 = CC_DESIGN_PERSON_AND_ORGANIZATION_ASSIGNMENT ( #140, #76, ( #88 ) ) ;
#117 = FACE_BOUND ( 'NONE', #244, .T. ) ;
#118 = EDGE_LOOP ( 'NONE', ( #182 ) ) ;
#119 = CALENDAR_DATE ( 2021, 13, 10 ) ;
#120 = APPROVAL_PERSON_ORGANIZATION ( #58, #108, #180 ) ;
#121 = DATE_TIME_ROLE ( 'classification_date' ) ;
#122 = AXIS2_PLACEMENT_3D ( 'NONE', #89, #109, #146 ) ;
#123 = EDGE_CURVE ( 'NONE', #218, #218, #11, .T. ) ;
#124 = FACE_OUTER_BOUND ( 'NONE', #23, .T. ) ;
#125 = DIRECTION ( 'NONE',  ( 3.491481338843133355E-15, -1.224646799147353207E-16, 1.000000000000000000 ) ) ;
#126 = AXIS2_PLACEMENT_3D ( 'NONE', #24, #230, #8 ) ;
#127 = ORIENTED_EDGE ( 'NONE', *, *, #157, .F. ) ;
#128 = DIRECTION ( 'NONE',  ( -3.491481338843133355E-15, 4.327174794786742882E-16, -1.000000000000000000 ) ) ;
#129 = CARTESIAN_POINT ( 'NONE',  ( 2.147261023388527077E-13, -7.531577814756222656E-15, 61.50000000000000000 ) ) ;
#130 = AXIS2_PLACEMENT_3D ( 'NONE', #129, #57, #19 ) ;
#131 = CARTESIAN_POINT ( 'NONE',  ( 2.147261023388527077E-13, 1.999999999999989120, 61.50000000000000000 ) ) ;
#132 = ADVANCED_FACE ( 'NONE', ( #49 ), #104, .F. ) ;
#133 = CARTESIAN_POINT ( 'NONE',  ( 5.691114582314308000E-14, -7.053294915502392160E-15, 16.30000000000000071 ) ) ;
#134 = ORIENTED_EDGE ( 'NONE', *, *, #249, .F. ) ;
#135 = ORIENTED_EDGE ( 'NONE', *, *, #192, .T. ) ;
#136 = CALENDAR_DATE ( 2021, 13, 10 ) ;
#137 = ORIENTED_EDGE ( 'NONE', *, *, #212, .F. ) ;
#138 = APPROVAL_DATE_TIME ( #61, #153 ) ;
#139 = AXIS2_PLACEMENT_3D ( 'NONE', #194, #256, #50 ) ;
#140 = PERSON_AND_ORGANIZATION ( #215, #15 ) ;
#141 = CC_DESIGN_PERSON_AND_ORGANIZATION_ASSIGNMENT ( #216, #197, ( #236 ) ) ;
#142 = AXIS2_PLACEMENT_3D ( 'NONE', #254, #48, #29 ) ;
#143 = TOROIDAL_SURFACE ( 'NONE', #161, 2.250000000000005773, 1.000000000000000000 ) ;
#144 = FACE_OUTER_BOUND ( 'NONE', #118, .T. ) ;
#145 = CYLINDRICAL_SURFACE ( 'NONE', #142, 1.999999999999994005 ) ;
#146 = DIRECTION ( 'NONE',  ( 0.0000000000000000000, 1.000000000000000000, 0.0000000000000000000 ) ) ;
#147 = APPROVAL_PERSON_ORGANIZATION ( #164, #221, #98 ) ;
#148 = PRODUCT_DEFINITION ( 'UNKNOWN', '', #170, #91 ) ;
#149 = CARTESIAN_POINT ( 'NONE',  ( 8.238749359659078270E-14, -1.021071147454410185E-14, 23.59671600704847094 ) ) ;
#150 = UNCERTAINTY_MEASURE_WITH_UNIT (LENGTH_MEASURE( 1.000000000000000082E-05 ), #18, 'distance_accuracy_value', 'NONE');
#151 = CYLINDRICAL_SURFACE ( 'NONE', #126, 1.250000000000003109 ) ;
#152 = DIRECTION ( 'NONE',  ( -3.851859888774492726E-31, -1.000000000000000000, -1.084202172485510350E-16 ) ) ;
#153 = APPROVAL ( #205, 'UNSPECIFIED' ) ;
#154 = AXIS2_PLACEMENT_3D ( 'NONE', #158, #114, #14 ) ;
#155 =( NAMED_UNIT ( * ) PLANE_ANGLE_UNIT ( ) SI_UNIT ( $, .RADIAN. ) );
#156 = CARTESIAN_POINT ( 'NONE',  ( 6.563984917025090708E-14, 1.249999999999997780, 18.80000000000000071 ) ) ;
#157 = EDGE_CURVE ( 'NONE', #13, #13, #193, .T. ) ;
#158 = CARTESIAN_POINT ( 'NONE',  ( 5.691114582314308000E-14, -7.053294915502392160E-15, 16.30000000000000071 ) ) ;
#159 = EDGE_LOOP ( 'NONE', ( #134 ) ) ;
#160 = CARTESIAN_POINT ( 'NONE',  ( 0.0000000000000000000, 0.0000000000000000000, 0.0000000000000000000 ) ) ;
#161 = AXIS2_PLACEMENT_3D ( 'NONE', #47, #128, #111 ) ;
#162 = ORIENTED_EDGE ( 'NONE', *, *, #123, .T. ) ;
#163 = CALENDAR_DATE ( 2021, 13, 10 ) ;
#164 = PERSON_AND_ORGANIZATION ( #215, #15 ) ;
#165 = ORIENTED_EDGE ( 'NONE', *, *, #157, .T. ) ;
#166 = SECURITY_CLASSIFICATION_LEVEL ( 'unclassified' ) ;
#167 = PERSON_AND_ORGANIZATION ( #215, #15 ) ;
#168 = CC_DESIGN_APPROVAL ( #153, ( #148 ) ) ;
#169 = CC_DESIGN_PERSON_AND_ORGANIZATION_ASSIGNMENT ( #78, #80, ( #170 ) ) ;
#170 = PRODUCT_DEFINITION_FORMATION_WITH_SPECIFIED_SOURCE ( 'ANY', '', #236, .NOT_KNOWN. ) ;
#171 = FACE_OUTER_BOUND ( 'NONE', #12, .T. ) ;
#172 = CARTESIAN_POINT ( 'NONE',  ( 6.563984917025090708E-14, -8.135088614199076303E-15, 18.80000000000000071 ) ) ;
#173 = EDGE_CURVE ( 'NONE', #242, #242, #81, .T. ) ;
#174 = DIRECTION ( 'NONE',  ( -3.491481338843133355E-15, 1.224646799147353207E-16, -1.000000000000000000 ) ) ;
#175 = CC_DESIGN_SECURITY_CLASSIFICATION ( #88, ( #170 ) ) ;
#176 = FACE_OUTER_BOUND ( 'NONE', #240, .T. ) ;
#177 = CARTESIAN_POINT ( 'NONE',  ( 6.654351103636356446E-14, 1.284074173710929800, 19.05881904510252411 ) ) ;
#178 = CARTESIAN_POINT ( 'NONE',  ( 7.587230072147008191E-14, -2.000000000000003553, 21.73069060326399793 ) ) ;
#179 = VERTEX_POINT ( 'NONE', #36 ) ;
#180 = APPROVAL_ROLE ( '' ) ;
#181 = CIRCLE ( 'NONE', #209, 1.250000000000003109 ) ;
#182 = ORIENTED_EDGE ( 'NONE', *, *, #123, .F. ) ;
#183 = PERSON_AND_ORGANIZATION ( #215, #15 ) ;
#184 = PERSON_AND_ORGANIZATION ( #215, #15 ) ;
#185 = ORIENTED_EDGE ( 'NONE', *, *, #202, .T. ) ;
#186 = ORIENTED_EDGE ( 'NONE', *, *, #212, .T. ) ;
#187 = CYLINDRICAL_SURFACE ( 'NONE', #226, 1.250000000000003109 ) ;
#188 = AXIS2_PLACEMENT_3D ( 'NONE', #17, #258, #74 ) ;
#189 = FACE_OUTER_BOUND ( 'NONE', #159, .T. ) ;
#190 = DIRECTION ( 'NONE',  ( 0.0000000000000000000, 1.000000000000000000, 0.0000000000000000000 ) ) ;
#191 = DIRECTION ( 'NONE',  ( 0.0000000000000000000, 1.000000000000000000, 0.0000000000000000000 ) ) ;
#192 = EDGE_CURVE ( 'NONE', #54, #54, #259, .T. ) ;
#193 = CIRCLE ( 'NONE', #51, 1.499999999999996447 ) ;
#194 = CARTESIAN_POINT ( 'NONE',  ( 5.691114582314308000E-14, 1.499759782661847755E-32, 16.30000000000000071 ) ) ;
#195 = FACE_OUTER_BOUND ( 'NONE', #102, .T. ) ;
#196 = MECHANICAL_CONTEXT ( 'NONE', #79, 'mechanical' ) ;
#197 = PERSON_AND_ORGANIZATION_ROLE ( 'design_owner' ) ;
#198 = ADVANCED_FACE ( 'NONE', ( #73 ), #25, .T. ) ;
#199 = APPLICATION_CONTEXT ( 'configuration controlled 3d designs of mechanical parts and assemblies' ) ;
#200 = CARTESIAN_POINT ( 'NONE',  ( 5.691114582314308000E-14, -1.250000000000010214, 16.30000000000000071 ) ) ;
#201 = DIRECTION ( 'NONE',  ( -3.491481338843133355E-15, 1.224646799147353207E-16, -1.000000000000000000 ) ) ;
#202 = EDGE_CURVE ( 'NONE', #92, #92, #181, .T. ) ;
#203 = DATE_TIME_ROLE ( 'creation_date' ) ;
#204 = ORIENTED_EDGE ( 'NONE', *, *, #113, .T. ) ;
#205 = APPROVAL_STATUS ( 'not_yet_approved' ) ;
#206 = LOCAL_TIME ( 14, 56, 50.00000000000000000, #21 ) ;
#207 = DIRECTION ( 'NONE',  ( 1.510825004591027855E-30, 1.000000000000000000, 4.327174794786743375E-16 ) ) ;
#208 = FACE_OUTER_BOUND ( 'NONE', #41, .T. ) ;
#209 = AXIS2_PLACEMENT_3D ( 'NONE', #133, #257, #33 ) ;
#210 = EDGE_LOOP ( 'NONE', ( #162 ) ) ;
#211 = DIRECTION ( 'NONE',  ( 0.0000000000000000000, -1.000000000000000000, 0.0000000000000000000 ) ) ;
#212 = EDGE_CURVE ( 'NONE', #239, #239, #250, .T. ) ;
#213 = DIRECTION ( 'NONE',  ( 3.491481338843133355E-15, -4.327174794786742882E-16, 1.000000000000000000 ) ) ;
#214 = DIRECTION ( 'NONE',  ( 0.0000000000000000000, 1.000000000000000000, 0.0000000000000000000 ) ) ;
#215 = PERSON ( 'UNSPECIFIED', 'UNSPECIFIED', 'UNSPECIFIED', ('UNSPECIFIED'), ('UNSPECIFIED'), ('UNSPECIFIED') ) ;
#216 = PERSON_AND_ORGANIZATION ( #215, #15 ) ;
#217 = LOCAL_TIME ( 14, 56, 50.00000000000000000, #16 ) ;
#218 = VERTEX_POINT ( 'NONE', #156 ) ;
#219 = EDGE_LOOP ( 'NONE', ( #185 ) ) ;
#220 = DIRECTION ( 'NONE',  ( 0.0000000000000000000, 0.0000000000000000000, 1.000000000000000000 ) ) ;
#221 = APPROVAL ( #22, 'UNSPECIFIED' ) ;
#222 = APPROVAL_STATUS ( 'not_yet_approved' ) ;
#223 = ORIENTED_EDGE ( 'NONE', *, *, #173, .T. ) ;
#224 = AXIS2_PLACEMENT_3D ( 'NONE', #86, #174, #68 ) ;
#225 = COORDINATED_UNIVERSAL_TIME_OFFSET ( 1, 0, .AHEAD. ) ;
#226 = AXIS2_PLACEMENT_3D ( 'NONE', #65, #26, #207 ) ;
#227 = AXIS2_PLACEMENT_3D ( 'NONE', #160, #220, #70 ) ;
#228 = FACE_OUTER_BOUND ( 'NONE', #6, .T. ) ;
#229 = CARTESIAN_POINT ( 'NONE',  ( 5.691114582314308000E-14, 1.499759782661847755E-32, 16.30000000000000071 ) ) ;
#230 = DIRECTION ( 'NONE',  ( -3.491481338843133355E-15, 4.327174794786742882E-16, -1.000000000000000000 ) ) ;
#231 = CC_DESIGN_APPROVAL ( #221, ( #88 ) ) ;
#232 = FACE_OUTER_BOUND ( 'NONE', #210, .T. ) ;
#233 = CARTESIAN_POINT ( 'NONE',  ( 2.164718430082742680E-13, 1.124819836996379248E-32, 62.00000000000000000 ) ) ;
#234 =( NAMED_UNIT ( * ) SI_UNIT ( $, .STERADIAN. ) SOLID_ANGLE_UNIT ( ) );
#235 = AXIS2_PLACEMENT_3D ( 'NONE', #112, #201, #214 ) ;
#236 = PRODUCT ( '960142', '960142', '', ( #196 ) ) ;
#237 = CARTESIAN_POINT ( 'NONE',  ( 1.588494101043535925E-15, -1.250000000000003109, 0.4549627928327599768 ) ) ;
#238 = DIRECTION ( 'NONE',  ( 3.491481338843133355E-15, -1.224646799147353207E-16, 1.000000000000000000 ) ) ;
#239 = VERTEX_POINT ( 'NONE', #178 ) ;
#240 = EDGE_LOOP ( 'NONE', ( #127 ) ) ;
#241 = CLOSED_SHELL ( 'NONE', ( #198, #53, #71 ) ) ;
#242 = VERTEX_POINT ( 'NONE', #237 ) ;
#243 = ADVANCED_FACE ( 'NONE', ( #195, #117 ), #75, .T. ) ;
#244 = EDGE_LOOP ( 'NONE', ( #165 ) ) ;
#245 = COORDINATED_UNIVERSAL_TIME_OFFSET ( 1, 0, .AHEAD. ) ;
#246 = EDGE_LOOP ( 'NONE', ( #186 ) ) ;
#247 = COORDINATED_UNIVERSAL_TIME_OFFSET ( 1, 0, .AHEAD. ) ;
#248 = PERSON_AND_ORGANIZATION_ROLE ( 'design_supplier' ) ;
#249 = EDGE_CURVE ( 'NONE', #179, #179, #64, .T. ) ;
#250 = CIRCLE ( 'NONE', #188, 1.999999999999994005 ) ;
#251 = FACE_OUTER_BOUND ( 'NONE', #219, .T. ) ;
#252 = FACE_OUTER_BOUND ( 'NONE', #246, .T. ) ;
#253 = FACE_OUTER_BOUND ( 'NONE', #101, .T. ) ;
#254 = CARTESIAN_POINT ( 'NONE',  ( 0.0000000000000000000, 0.0000000000000000000, 0.0000000000000000000 ) ) ;
#255 =( GEOMETRIC_REPRESENTATION_CONTEXT ( 3 ) GLOBAL_UNCERTAINTY_ASSIGNED_CONTEXT ( ( #150 ) ) GLOBAL_UNIT_ASSIGNED_CONTEXT ( ( #18, #155, #234 ) ) REPRESENTATION_CONTEXT ( 'NONE', 'WORKASPACE' ) );
#256 = DIRECTION ( 'NONE',  ( 3.491481338843133355E-15, -1.224646799147353207E-16, 1.000000000000000000 ) ) ;
#257 = DIRECTION ( 'NONE',  ( -3.491481338843133355E-15, 1.224646799147353207E-16, -1.000000000000000000 ) ) ;
#258 = DIRECTION ( 'NONE',  ( 3.491481338843133355E-15, -4.327174794786742882E-16, 1.000000000000000000 ) ) ;
#259 = CIRCLE ( 'NONE', #130, 1.999999999999996669 ) ;
#260 = CC_DESIGN_PERSON_AND_ORGANIZATION_ASSIGNMENT ( #184, #60, ( #148 ) ) ;
#261 = MANIFOLD_SOLID_BREP ( 'Corps-Déplacer/Copier1[2]', #241 ) ;
#262 = AXIS2_PLACEMENT_3D ( 'NONE', #39, #238, #152 ) ;
#263 = APPROVAL_DATE_TIME ( #97, #108 ) ;
ENDSEC;
END-ISO-10303-21;
