ISO-10303-21;
HEADER;
FILE_DESCRIPTION (( 'STEP AP203' ),
    '1' );
FILE_NAME ('960141.step',
    '2021-10-13T12:56:50',
    ( '' ),
    ( '' ),
    'SwSTEP 2.0',
    'SolidWorks 2019',
    '' );
FILE_SCHEMA (( 'CONFIG_CONTROL_DESIGN' ));
ENDSEC;

DATA;
#1 = EDGE_CURVE ( 'NONE', #120, #120, #150, .T. ) ;
#2 = MANIFOLD_SOLID_BREP ( 'Corps-Déplacer/Copier1[1]', #3 ) ;
#3 = CLOSED_SHELL ( 'NONE', ( #149, #140, #107, #204, #135, #65, #7 ) ) ;
#4 = AXIS2_PLACEMENT_3D ( 'NONE', #208, #139, #28 ) ;
#5 = ORIENTED_EDGE ( 'NONE', *, *, #119, .T. ) ;
#6 = DIRECTION ( 'NONE',  ( 3.491481338843133355E-15, -4.327174794786742882E-16, 1.000000000000000000 ) ) ;
#7 = ADVANCED_FACE ( 'NONE', ( #214 ), #96, .F. ) ;
#8 = CYLINDRICAL_SURFACE ( 'NONE', #199, 1.200000000000002620 ) ;
#9 = LOCAL_TIME ( 14, 56, 50.00000000000000000, #112 ) ;
#10 = APPROVAL_DATE_TIME ( #104, #98 ) ;
#11 = ADVANCED_FACE ( 'NONE', ( #39 ), #138, .T. ) ;
#12 = DESIGN_CONTEXT ( 'detailed design', #184, 'design' ) ;
#13 = FACE_OUTER_BOUND ( 'NONE', #37, .T. ) ;
#14 = AXIS2_PLACEMENT_3D ( 'NONE', #133, #79, #241 ) ;
#15 = COORDINATED_UNIVERSAL_TIME_OFFSET ( 1, 0, .AHEAD. ) ;
#16 = CARTESIAN_POINT ( 'NONE',  ( 1.524954337001794567E-15, -5.348819788548288315E-17, 0.4367642811194496488 ) ) ;
#17 = DATE_AND_TIME ( #50, #9 ) ;
#18 = FACE_OUTER_BOUND ( 'NONE', #68, .T. ) ;
#19 = DIRECTION ( 'NONE',  ( 1.510825004591027679E-30, 1.000000000000000000, 4.327174794786742882E-16 ) ) ;
#20 = CARTESIAN_POINT ( 'NONE',  ( 8.024582781302833347E-14, -9.945283671898038671E-15, 22.98331854742691149 ) ) ;
#21 = CARTESIAN_POINT ( 'NONE',  ( 2.164718430082742680E-13, 1.499999999999988676, 62.00000000000000000 ) ) ;
#22 = FACE_OUTER_BOUND ( 'NONE', #72, .T. ) ;
#23 = VERTEX_POINT ( 'NONE', #222 ) ;
#24 = CIRCLE ( 'NONE', #253, 1.200000000000005507 ) ;
#25 = EDGE_CURVE ( 'NONE', #201, #201, #162, .T. ) ;
#26 = CARTESIAN_POINT ( 'NONE',  ( 5.446710888595288034E-14, -1.200000000000009504, 15.59999999999999964 ) ) ;
#27 =( GEOMETRIC_REPRESENTATION_CONTEXT ( 3 ) GLOBAL_UNCERTAINTY_ASSIGNED_CONTEXT ( ( #48 ) ) GLOBAL_UNIT_ASSIGNED_CONTEXT ( ( #99, #180, #229 ) ) REPRESENTATION_CONTEXT ( 'NONE', 'WORKASPACE' ) );
#28 = DIRECTION ( 'NONE',  ( 0.0000000000000000000, 1.000000000000000000, 0.0000000000000000000 ) ) ;
#29 = DATE_AND_TIME ( #215, #146 ) ;
#30 = AXIS2_PLACEMENT_3D ( 'NONE', #164, #6, #163 ) ;
#31 = SECURITY_CLASSIFICATION_LEVEL ( 'unclassified' ) ;
#32 = SHAPE_DEFINITION_REPRESENTATION ( #126, #240 ) ;
#33 = CARTESIAN_POINT ( 'NONE',  ( 2.164718430082742680E-13, 1.124819836996379248E-32, 62.00000000000000000 ) ) ;
#34 = APPROVAL_ROLE ( '' ) ;
#35 = DIRECTION ( 'NONE',  ( -3.491481338843133355E-15, 1.224646799147353207E-16, -1.000000000000000000 ) ) ;
#36 = PERSON_AND_ORGANIZATION ( #236, #233 ) ;
#37 = EDGE_LOOP ( 'NONE', ( #52 ) ) ;
#38 = DIRECTION ( 'NONE',  ( 3.491481338843133355E-15, -1.224646799147353207E-16, 1.000000000000000000 ) ) ;
#39 = FACE_OUTER_BOUND ( 'NONE', #226, .T. ) ;
#40 = LOCAL_TIME ( 14, 56, 50.00000000000000000, #237 ) ;
#41 = FACE_OUTER_BOUND ( 'NONE', #212, .T. ) ;
#42 = VERTEX_POINT ( 'NONE', #57 ) ;
#43 = EDGE_CURVE ( 'NONE', #97, #97, #258, .T. ) ;
#44 = DIRECTION ( 'NONE',  ( 0.0000000000000000000, 1.000000000000000000, 0.0000000000000000000 ) ) ;
#45 = CARTESIAN_POINT ( 'NONE',  ( 0.0000000000000000000, 0.0000000000000000000, 0.0000000000000000000 ) ) ;
#46 = CIRCLE ( 'NONE', #117, 1.999999999999996669 ) ;
#47 = APPLICATION_PROTOCOL_DEFINITION ( 'international standard', 'config_control_design', 1994, #173 ) ;
#48 = UNCERTAINTY_MEASURE_WITH_UNIT (LENGTH_MEASURE( 1.000000000000000082E-05 ), #99, 'distance_accuracy_value', 'NONE');
#49 = ORIENTED_EDGE ( 'NONE', *, *, #43, .F. ) ;
#50 = CALENDAR_DATE ( 2021, 13, 10 ) ;
#51 = DATE_AND_TIME ( #53, #169 ) ;
#52 = ORIENTED_EDGE ( 'NONE', *, *, #62, .F. ) ;
#53 = CALENDAR_DATE ( 2021, 13, 10 ) ;
#54 = CARTESIAN_POINT ( 'NONE',  ( 5.446710888595288034E-14, 1.499759782661848029E-32, 15.59999999999999964 ) ) ;
#55 = APPROVAL_PERSON_ORGANIZATION ( #213, #156, #34 ) ;
#56 = DIRECTION ( 'NONE',  ( -3.491481338843133355E-15, 1.224646799147353207E-16, -1.000000000000000000 ) ) ;
#57 = CARTESIAN_POINT ( 'NONE',  ( 6.284666409917640040E-14, 1.199999999999997735, 18.00000000000000000 ) ) ;
#58 = AXIS2_PLACEMENT_3D ( 'NONE', #257, #35, #242 ) ;
#59 = AXIS2_PLACEMENT_3D ( 'NONE', #193, #116, #239 ) ;
#60 = CARTESIAN_POINT ( 'NONE',  ( 6.375032596528905777E-14, 1.234074173710929756, 18.25881904510251985 ) ) ;
#61 = DIRECTION ( 'NONE',  ( -3.491481338843133355E-15, 4.327174794786742882E-16, -1.000000000000000000 ) ) ;
#62 = EDGE_CURVE ( 'NONE', #247, #247, #86, .T. ) ;
#63 = EDGE_LOOP ( 'NONE', ( #205 ) ) ;
#64 = DIRECTION ( 'NONE',  ( -3.491481338843133355E-15, 1.224646799147353207E-16, -1.000000000000000000 ) ) ;
#65 = ADVANCED_FACE ( 'NONE', ( #175, #219 ), #224, .F. ) ;
#66 = APPLICATION_PROTOCOL_DEFINITION ( 'international standard', 'config_control_design', 1994, #184 ) ;
#67 = CALENDAR_DATE ( 2021, 13, 10 ) ;
#68 = EDGE_LOOP ( 'NONE', ( #106 ) ) ;
#69 = DATE_TIME_ROLE ( 'creation_date' ) ;
#70 = AXIS2_PLACEMENT_3D ( 'NONE', #132, #56, #78 ) ;
#71 = SECURITY_CLASSIFICATION ( '', '', #31 ) ;
#72 = EDGE_LOOP ( 'NONE', ( #147 ) ) ;
#73 = CC_DESIGN_PERSON_AND_ORGANIZATION_ASSIGNMENT ( #194, #172, ( #91 ) ) ;
#74 = PERSON_AND_ORGANIZATION_ROLE ( 'creator' ) ;
#75 = DIRECTION ( 'NONE',  ( -4.814824860968079123E-31, -1.000000000000000000, -1.355252715606877584E-16 ) ) ;
#76 = CARTESIAN_POINT ( 'NONE',  ( 5.446710888595288034E-14, -6.750392679867319054E-15, 15.59999999999999964 ) ) ;
#77 = CC_DESIGN_PERSON_AND_ORGANIZATION_ASSIGNMENT ( #249, #190, ( #129 ) ) ;
#78 = DIRECTION ( 'NONE',  ( 0.0000000000000000000, 1.000000000000000000, 0.0000000000000000000 ) ) ;
#79 = DIRECTION ( 'NONE',  ( 3.491481338843133355E-15, -1.224646799147353207E-16, 1.000000000000000000 ) ) ;
#80 = FACE_OUTER_BOUND ( 'NONE', #189, .T. ) ;
#81 = CC_DESIGN_DATE_AND_TIME_ASSIGNMENT ( #134, #69, ( #145 ) ) ;
#82 = AXIS2_PLACEMENT_3D ( 'NONE', #45, #123, #203 ) ;
#83 = ORIENTED_EDGE ( 'NONE', *, *, #160, .T. ) ;
#84 = ADVANCED_FACE ( 'NONE', ( #191, #13 ), #136, .T. ) ;
#85 = MANIFOLD_SOLID_BREP ( 'Corps-Déplacer/Copier1[2]', #166 ) ;
#86 = CIRCLE ( 'NONE', #121, 1.200000000000002620 ) ;
#87 = AXIS2_PLACEMENT_3D ( 'NONE', #254, #155, #176 ) ;
#88 = PERSON_AND_ORGANIZATION ( #236, #233 ) ;
#89 = CC_DESIGN_PERSON_AND_ORGANIZATION_ASSIGNMENT ( #36, #188, ( #71 ) ) ;
#90 = DIRECTION ( 'NONE',  ( -3.491481338843133355E-15, 1.224646799147353207E-16, -1.000000000000000000 ) ) ;
#91 = PRODUCT_DEFINITION_FORMATION_WITH_SPECIFIED_SOURCE ( 'ANY', '', #129, .NOT_KNOWN. ) ;
#92 = PERSON_AND_ORGANIZATION ( #236, #233 ) ;
#93 = DIRECTION ( 'NONE',  ( -3.491481338843133355E-15, 1.224646799147353207E-16, -1.000000000000000000 ) ) ;
#94 = DATE_TIME_ROLE ( 'classification_date' ) ;
#95 = DIRECTION ( 'NONE',  ( -3.491481338843133355E-15, 1.224646799147353207E-16, -1.000000000000000000 ) ) ;
#96 = PLANE ( 'NONE',  #125 ) ;
#97 = VERTEX_POINT ( 'NONE', #101 ) ;
#98 = APPROVAL ( #130, 'UNSPECIFIED' ) ;
#99 =( LENGTH_UNIT ( ) NAMED_UNIT ( * ) SI_UNIT ( .MILLI., .METRE. ) );
#100 = AXIS2_PLACEMENT_3D ( 'NONE', #157, #111, #19 ) ;
#101 = CARTESIAN_POINT ( 'NONE',  ( 5.446710888595288034E-14, -1.200000000000009504, 15.59999999999999964 ) ) ;
#102 = EDGE_LOOP ( 'NONE', ( #170 ) ) ;
#103 = CARTESIAN_POINT ( 'NONE',  ( 2.147261023388527077E-13, 1.999999999999989120, 61.50000000000000000 ) ) ;
#104 = DATE_AND_TIME ( #187, #221 ) ;
#105 = AXIS2_PLACEMENT_3D ( 'NONE', #20, #178, #260 ) ;
#106 = ORIENTED_EDGE ( 'NONE', *, *, #62, .T. ) ;
#107 = ADVANCED_FACE ( 'NONE', ( #137 ), #114, .F. ) ;
#108 = APPROVAL_STATUS ( 'not_yet_approved' ) ;
#109 = ORIENTED_EDGE ( 'NONE', *, *, #113, .F. ) ;
#110 = PERSON_AND_ORGANIZATION_ROLE ( 'creator' ) ;
#111 = DIRECTION ( 'NONE',  ( -3.491481338843133355E-15, 4.327174794786742882E-16, -1.000000000000000000 ) ) ;
#112 = COORDINATED_UNIVERSAL_TIME_OFFSET ( 1, 0, .AHEAD. ) ;
#113 = EDGE_CURVE ( 'NONE', #183, #183, #46, .T. ) ;
#114 = PLANE ( 'NONE',  #202 ) ;
#115 = FACE_BOUND ( 'NONE', #63, .T. ) ;
#116 = DIRECTION ( 'NONE',  ( -3.491481338843133355E-15, 4.327174794786742882E-16, -1.000000000000000000 ) ) ;
#117 = AXIS2_PLACEMENT_3D ( 'NONE', #174, #195, #256 ) ;
#118 = DIRECTION ( 'NONE',  ( 4.275831445896959482E-31, 1.000000000000000000, 1.224646799147353207E-16 ) ) ;
#119 = EDGE_CURVE ( 'NONE', #243, #243, #206, .T. ) ;
#120 = VERTEX_POINT ( 'NONE', #21 ) ;
#121 = AXIS2_PLACEMENT_3D ( 'NONE', #16, #95, #75 ) ;
#122 = APPROVAL_PERSON_ORGANIZATION ( #255, #246, #131 ) ;
#123 = DIRECTION ( 'NONE',  ( 0.0000000000000000000, 0.0000000000000000000, 1.000000000000000000 ) ) ;
#124 = ADVANCED_FACE ( 'NONE', ( #18 ), #181, .T. ) ;
#125 = AXIS2_PLACEMENT_3D ( 'NONE', #54, #159, #153 ) ;
#126 = PRODUCT_DEFINITION_SHAPE ( 'NONE', 'NONE',  #145 ) ;
#127 = MECHANICAL_CONTEXT ( 'NONE', #173, 'mechanical' ) ;
#128 = EDGE_LOOP ( 'NONE', ( #49 ) ) ;
#129 = PRODUCT ( '960141', '960141', '', ( #127 ) ) ;
#130 = APPROVAL_STATUS ( 'not_yet_approved' ) ;
#131 = APPROVAL_ROLE ( '' ) ;
#132 = CARTESIAN_POINT ( 'NONE',  ( 2.164718430082742680E-13, -7.592810154713590230E-15, 62.00000000000000000 ) ) ;
#133 = CARTESIAN_POINT ( 'NONE',  ( 5.446710888595288034E-14, 1.499759782661848029E-32, 15.59999999999999964 ) ) ;
#134 = DATE_AND_TIME ( #67, #40 ) ;
#135 = ADVANCED_FACE ( 'NONE', ( #115, #196 ), #167, .T. ) ;
#136 = CYLINDRICAL_SURFACE ( 'NONE', #59, 1.200000000000002620 ) ;
#137 = FACE_OUTER_BOUND ( 'NONE', #152, .T. ) ;
#138 = PLANE ( 'NONE',  #14 ) ;
#139 = DIRECTION ( 'NONE',  ( -3.491481338843133355E-15, 1.224646799147353207E-16, -1.000000000000000000 ) ) ;
#140 = ADVANCED_FACE ( 'NONE', ( #41, #142 ), #216, .T. ) ;
#141 = FACE_OUTER_BOUND ( 'NONE', #185, .T. ) ;
#142 = FACE_BOUND ( 'NONE', #217, .T. ) ;
#143 = CC_DESIGN_SECURITY_CLASSIFICATION ( #71, ( #91 ) ) ;
#144 = AXIS2_PLACEMENT_3D ( 'NONE', #76, #90, #171 ) ;
#145 = PRODUCT_DEFINITION ( 'UNKNOWN', '', #91, #12 ) ;
#146 = LOCAL_TIME ( 14, 56, 50.00000000000000000, #231 ) ;
#147 = ORIENTED_EDGE ( 'NONE', *, *, #228, .T. ) ;
#148 = APPROVAL_ROLE ( '' ) ;
#149 = ADVANCED_FACE ( 'NONE', ( #141, #80 ), #261, .T. ) ;
#150 = CIRCLE ( 'NONE', #70, 1.499999999999996447 ) ;
#151 = CC_DESIGN_APPROVAL ( #246, ( #145 ) ) ;
#152 = EDGE_LOOP ( 'NONE', ( #230 ) ) ;
#153 = DIRECTION ( 'NONE',  ( -4.275831445896958607E-31, -1.000000000000000000, -1.224646799147353207E-16 ) ) ;
#154 = PERSON_AND_ORGANIZATION ( #236, #233 ) ;
#155 = DIRECTION ( 'NONE',  ( -3.491481338843133355E-15, 4.327174794786742882E-16, -1.000000000000000000 ) ) ;
#156 = APPROVAL ( #108, 'UNSPECIFIED' ) ;
#157 = CARTESIAN_POINT ( 'NONE',  ( 6.284666409917640040E-14, -7.806255641895631925E-15, 18.00000000000000000 ) ) ;
#158 = APPROVAL_PERSON_ORGANIZATION ( #88, #98, #148 ) ;
#159 = DIRECTION ( 'NONE',  ( 3.491481338843133355E-15, -1.224646799147353207E-16, 1.000000000000000000 ) ) ;
#160 = EDGE_CURVE ( 'NONE', #23, #23, #227, .T. ) ;
#161 = DIRECTION ( 'NONE',  ( -3.851859888774492726E-31, -1.000000000000000000, -1.084202172485510350E-16 ) ) ;
#162 = CIRCLE ( 'NONE', #58, 1.200000000000002620 ) ;
#163 = DIRECTION ( 'NONE',  ( 0.0000000000000000000, -1.000000000000000000, 0.0000000000000000000 ) ) ;
#164 = CARTESIAN_POINT ( 'NONE',  ( 7.373063493790763268E-14, -9.137821862529249294E-15, 21.11729314364244559 ) ) ;
#165 = CC_DESIGN_DATE_AND_TIME_ASSIGNMENT ( #17, #94, ( #71 ) ) ;
#166 = CLOSED_SHELL ( 'NONE', ( #124, #84, #11 ) ) ;
#167 = CONICAL_SURFACE ( 'NONE', #105, 2.500000000000003553, 0.2617993877991502960 ) ;
#168 = CARTESIAN_POINT ( 'NONE',  ( 0.0000000000000000000, 0.0000000000000000000, 0.0000000000000000000 ) ) ;
#169 = LOCAL_TIME ( 14, 56, 50.00000000000000000, #15 ) ;
#170 = ORIENTED_EDGE ( 'NONE', *, *, #228, .F. ) ;
#171 = DIRECTION ( 'NONE',  ( 0.0000000000000000000, -1.000000000000000000, 0.0000000000000000000 ) ) ;
#172 = PERSON_AND_ORGANIZATION_ROLE ( 'design_supplier' ) ;
#173 = APPLICATION_CONTEXT ( 'configuration controlled 3d designs of mechanical parts and assemblies' ) ;
#174 = CARTESIAN_POINT ( 'NONE',  ( 2.147261023388527077E-13, -7.531577814756222656E-15, 61.50000000000000000 ) ) ;
#175 = FACE_OUTER_BOUND ( 'NONE', #102, .T. ) ;
#176 = DIRECTION ( 'NONE',  ( 0.0000000000000000000, 1.000000000000000000, 0.0000000000000000000 ) ) ;
#177 = AXIS2_PLACEMENT_3D ( 'NONE', #218, #38, #161 ) ;
#178 = DIRECTION ( 'NONE',  ( 3.491481338843133355E-15, -4.327174794786742882E-16, 1.000000000000000000 ) ) ;
#179 = CARTESIAN_POINT ( 'NONE',  ( 1.524954337001793976E-15, -1.200000000000002620, 0.4367642811194494823 ) ) ;
#180 =( NAMED_UNIT ( * ) PLANE_ANGLE_UNIT ( ) SI_UNIT ( $, .RADIAN. ) );
#181 = CONICAL_SURFACE ( 'NONE', #177, 1.999999999999989120, 1.221730476396026388 ) ;
#182 = AXIS2_PLACEMENT_3D ( 'NONE', #245, #64, #118 ) ;
#183 = VERTEX_POINT ( 'NONE', #103 ) ;
#184 = APPLICATION_CONTEXT ( 'configuration controlled 3d designs of mechanical parts and assemblies' ) ;
#185 = EDGE_LOOP ( 'NONE', ( #83 ) ) ;
#186 = CC_DESIGN_PERSON_AND_ORGANIZATION_ASSIGNMENT ( #92, #110, ( #91 ) ) ;
#187 = CALENDAR_DATE ( 2021, 13, 10 ) ;
#188 = PERSON_AND_ORGANIZATION_ROLE ( 'classification_officer' ) ;
#189 = EDGE_LOOP ( 'NONE', ( #251 ) ) ;
#190 = PERSON_AND_ORGANIZATION_ROLE ( 'design_owner' ) ;
#191 = FACE_OUTER_BOUND ( 'NONE', #250, .T. ) ;
#192 = APPROVAL_STATUS ( 'not_yet_approved' ) ;
#193 = CARTESIAN_POINT ( 'NONE',  ( 0.0000000000000000000, 0.0000000000000000000, 0.0000000000000000000 ) ) ;
#194 = PERSON_AND_ORGANIZATION ( #236, #233 ) ;
#195 = DIRECTION ( 'NONE',  ( -3.491481338843133355E-15, 1.224646799147353207E-16, -1.000000000000000000 ) ) ;
#196 = FACE_OUTER_BOUND ( 'NONE', #235, .T. ) ;
#197 = CC_DESIGN_PERSON_AND_ORGANIZATION_ASSIGNMENT ( #154, #74, ( #145 ) ) ;
#198 = DIRECTION ( 'NONE',  ( 4.275831445896958607E-31, 1.000000000000000000, 1.224646799147353207E-16 ) ) ;
#199 = AXIS2_PLACEMENT_3D ( 'NONE', #168, #61, #200 ) ;
#200 = DIRECTION ( 'NONE',  ( 1.510825004591028205E-30, 1.000000000000000000, 4.327174794786742882E-16 ) ) ;
#201 = VERTEX_POINT ( 'NONE', #26 ) ;
#202 = AXIS2_PLACEMENT_3D ( 'NONE', #33, #93, #198 ) ;
#203 = DIRECTION ( 'NONE',  ( 1.000000000000000000, 0.0000000000000000000, 0.0000000000000000000 ) ) ;
#204 = ADVANCED_FACE ( 'NONE', ( #22, #262 ), #8, .T. ) ;
#205 = ORIENTED_EDGE ( 'NONE', *, *, #119, .F. ) ;
#206 = CIRCLE ( 'NONE', #87, 1.234074173710937528 ) ;
#207 = ORIENTED_EDGE ( 'NONE', *, *, #25, .T. ) ;
#208 = CARTESIAN_POINT ( 'NONE',  ( 2.164718430082742680E-13, -7.592810154713590230E-15, 62.00000000000000000 ) ) ;
#209 = COORDINATED_UNIVERSAL_TIME_OFFSET ( 1, 0, .AHEAD. ) ;
#210 = APPROVAL_DATE_TIME ( #29, #156 ) ;
#211 = APPROVAL_DATE_TIME ( #51, #246 ) ;
#212 = EDGE_LOOP ( 'NONE', ( #109 ) ) ;
#213 = PERSON_AND_ORGANIZATION ( #236, #233 ) ;
#214 = FACE_OUTER_BOUND ( 'NONE', #238, .T. ) ;
#215 = CALENDAR_DATE ( 2021, 13, 10 ) ;
#216 = CONICAL_SURFACE ( 'NONE', #4, 1.499999999999996447, 0.7853981633974480570 ) ;
#217 = EDGE_LOOP ( 'NONE', ( #234 ) ) ;
#218 = CARTESIAN_POINT ( 'NONE',  ( 2.541590561669638548E-15, -8.914699647580411499E-17, 0.7279404685324105673 ) ) ;
#219 = FACE_OUTER_BOUND ( 'NONE', #248, .T. ) ;
#220 = CARTESIAN_POINT ( 'NONE',  ( 6.284666409917640040E-14, -7.788914630616135610E-15, 18.00000000000000000 ) ) ;
#221 = LOCAL_TIME ( 14, 56, 50.00000000000000000, #209 ) ;
#222 = CARTESIAN_POINT ( 'NONE',  ( 7.373063493790763268E-14, -2.000000000000003109, 21.11729314364244559 ) ) ;
#223 = DIRECTION ( 'NONE',  ( -3.491481338843133355E-15, 4.327174794786742882E-16, -1.000000000000000000 ) ) ;
#224 = TOROIDAL_SURFACE ( 'NONE', #100, 2.200000000000005507, 1.000000000000000000 ) ;
#225 = PRODUCT_RELATED_PRODUCT_CATEGORY ( 'detail', '', ( #129 ) ) ;
#226 = EDGE_LOOP ( 'NONE', ( #232 ) ) ;
#227 = CIRCLE ( 'NONE', #30, 1.999999999999994005 ) ;
#228 = EDGE_CURVE ( 'NONE', #42, #42, #24, .T. ) ;
#229 =( NAMED_UNIT ( * ) SI_UNIT ( $, .STERADIAN. ) SOLID_ANGLE_UNIT ( ) );
#230 = ORIENTED_EDGE ( 'NONE', *, *, #1, .F. ) ;
#231 = COORDINATED_UNIVERSAL_TIME_OFFSET ( 1, 0, .AHEAD. ) ;
#232 = ORIENTED_EDGE ( 'NONE', *, *, #25, .F. ) ;
#233 = ORGANIZATION ( 'UNSPECIFIED', 'UNSPECIFIED', '' ) ;
#234 = ORIENTED_EDGE ( 'NONE', *, *, #1, .T. ) ;
#235 = EDGE_LOOP ( 'NONE', ( #259 ) ) ;
#236 = PERSON ( 'UNSPECIFIED', 'UNSPECIFIED', 'UNSPECIFIED', ('UNSPECIFIED'), ('UNSPECIFIED'), ('UNSPECIFIED') ) ;
#237 = COORDINATED_UNIVERSAL_TIME_OFFSET ( 1, 0, .AHEAD. ) ;
#238 = EDGE_LOOP ( 'NONE', ( #252 ) ) ;
#239 = DIRECTION ( 'NONE',  ( 1.510825004591028205E-30, 1.000000000000000000, 4.327174794786742882E-16 ) ) ;
#240 = ADVANCED_BREP_SHAPE_REPRESENTATION ( '960141', ( #2, #85, #82 ), #27 ) ;
#241 = DIRECTION ( 'NONE',  ( -4.275831445896958607E-31, -1.000000000000000000, -1.224646799147353207E-16 ) ) ;
#242 = DIRECTION ( 'NONE',  ( 0.0000000000000000000, -1.000000000000000000, 0.0000000000000000000 ) ) ;
#243 = VERTEX_POINT ( 'NONE', #60 ) ;
#244 = CC_DESIGN_APPROVAL ( #98, ( #71 ) ) ;
#245 = CARTESIAN_POINT ( 'NONE',  ( 0.0000000000000000000, 0.0000000000000000000, 0.0000000000000000000 ) ) ;
#246 = APPROVAL ( #192, 'UNSPECIFIED' ) ;
#247 = VERTEX_POINT ( 'NONE', #179 ) ;
#248 = EDGE_LOOP ( 'NONE', ( #5 ) ) ;
#249 = PERSON_AND_ORGANIZATION ( #236, #233 ) ;
#250 = EDGE_LOOP ( 'NONE', ( #207 ) ) ;
#251 = ORIENTED_EDGE ( 'NONE', *, *, #113, .T. ) ;
#252 = ORIENTED_EDGE ( 'NONE', *, *, #43, .T. ) ;
#253 = AXIS2_PLACEMENT_3D ( 'NONE', #220, #223, #44 ) ;
#254 = CARTESIAN_POINT ( 'NONE',  ( 6.375032596528905777E-14, -7.900910155453977621E-15, 18.25881904510251985 ) ) ;
#255 = PERSON_AND_ORGANIZATION ( #236, #233 ) ;
#256 = DIRECTION ( 'NONE',  ( 0.0000000000000000000, 1.000000000000000000, 0.0000000000000000000 ) ) ;
#257 = CARTESIAN_POINT ( 'NONE',  ( 5.446710888595288034E-14, -6.750392679867319054E-15, 15.59999999999999964 ) ) ;
#258 = CIRCLE ( 'NONE', #144, 1.200000000000002620 ) ;
#259 = ORIENTED_EDGE ( 'NONE', *, *, #160, .F. ) ;
#260 = DIRECTION ( 'NONE',  ( 0.0000000000000000000, -1.000000000000000000, 0.0000000000000000000 ) ) ;
#261 = CYLINDRICAL_SURFACE ( 'NONE', #182, 1.999999999999994005 ) ;
#262 = FACE_OUTER_BOUND ( 'NONE', #128, .T. ) ;
#263 = CC_DESIGN_APPROVAL ( #156, ( #91 ) ) ;
ENDSEC;
END-ISO-10303-21;
