ISO-10303-21;
HEADER;
FILE_DESCRIPTION (( 'STEP AP203' ),
    '1' );
FILE_NAME ('960140.step',
    '2021-10-13T12:56:49',
    ( '' ),
    ( '' ),
    'SwSTEP 2.0',
    'SolidWorks 2019',
    '' );
FILE_SCHEMA (( 'CONFIG_CONTROL_DESIGN' ));
ENDSEC;

DATA;
#1 = DIRECTION ( 'NONE',  ( -3.851859888774492726E-31, -1.000000000000000000, -1.084202172485510350E-16 ) ) ;
#2 = CC_DESIGN_DATE_AND_TIME_ASSIGNMENT ( #15, #74, ( #151 ) ) ;
#3 = AXIS2_PLACEMENT_3D ( 'NONE', #195, #98, #13 ) ;
#4 = VERTEX_POINT ( 'NONE', #241 ) ;
#5 = DIRECTION ( 'NONE',  ( 3.491481338843133355E-15, -4.327174794786742882E-16, 1.000000000000000000 ) ) ;
#6 = ORIENTED_EDGE ( 'NONE', *, *, #163, .T. ) ;
#7 = CIRCLE ( 'NONE', #219, 1.999999999999994005 ) ;
#8 = CALENDAR_DATE ( 2021, 13, 10 ) ;
#9 = CC_DESIGN_PERSON_AND_ORGANIZATION_ASSIGNMENT ( #155, #107, ( #151 ) ) ;
#10 = PERSON_AND_ORGANIZATION ( #223, #213 ) ;
#11 = EDGE_LOOP ( 'NONE', ( #88 ) ) ;
#12 = COORDINATED_UNIVERSAL_TIME_OFFSET ( 1, 0, .AHEAD. ) ;
#13 = DIRECTION ( 'NONE',  ( 0.0000000000000000000, -1.000000000000000000, 0.0000000000000000000 ) ) ;
#14 = AXIS2_PLACEMENT_3D ( 'NONE', #80, #18, #35 ) ;
#15 = DATE_AND_TIME ( #92, #43 ) ;
#16 = APPROVAL_PERSON_ORGANIZATION ( #133, #250, #38 ) ;
#17 = CC_DESIGN_DATE_AND_TIME_ASSIGNMENT ( #149, #231, ( #140 ) ) ;
#18 = DIRECTION ( 'NONE',  ( -3.491481338843133355E-15, 4.327174794786742882E-16, -1.000000000000000000 ) ) ;
#19 = CALENDAR_DATE ( 2021, 13, 10 ) ;
#20 = DIRECTION ( 'NONE',  ( 3.491481338843133355E-15, -1.224646799147353207E-16, 1.000000000000000000 ) ) ;
#21 = DIRECTION ( 'NONE',  ( -3.491481338843133355E-15, 1.224646799147353207E-16, -1.000000000000000000 ) ) ;
#22 = ADVANCED_FACE ( 'NONE', ( #59, #78 ), #123, .F. ) ;
#23 = FACE_BOUND ( 'NONE', #210, .T. ) ;
#24 = VERTEX_POINT ( 'NONE', #104 ) ;
#25 = FACE_OUTER_BOUND ( 'NONE', #126, .T. ) ;
#26 = AXIS2_PLACEMENT_3D ( 'NONE', #221, #197, #170 ) ;
#27 = CARTESIAN_POINT ( 'NONE',  ( 7.193811728822950310E-14, -8.915665807831054495E-15, 20.60389568402088400 ) ) ;
#28 = CIRCLE ( 'NONE', #116, 1.150000000000002576 ) ;
#29 = ORIENTED_EDGE ( 'NONE', *, *, #230, .T. ) ;
#30 = DIRECTION ( 'NONE',  ( 0.0000000000000000000, -1.000000000000000000, 0.0000000000000000000 ) ) ;
#31 = ORIENTED_EDGE ( 'NONE', *, *, #163, .F. ) ;
#32 = AXIS2_PLACEMENT_3D ( 'NONE', #82, #162, #1 ) ;
#33 = ORIENTED_EDGE ( 'NONE', *, *, #154, .F. ) ;
#34 = PERSON_AND_ORGANIZATION_ROLE ( 'creator' ) ;
#35 = DIRECTION ( 'NONE',  ( 1.510825004591027855E-30, 1.000000000000000000, 4.327174794786742882E-16 ) ) ;
#36 = COORDINATED_UNIVERSAL_TIME_OFFSET ( 1, 0, .AHEAD. ) ;
#37 = DIRECTION ( 'NONE',  ( -3.491481338843133355E-15, 1.224646799147353207E-16, -1.000000000000000000 ) ) ;
#38 = APPROVAL_ROLE ( '' ) ;
#39 = CIRCLE ( 'NONE', #138, 1.999999999999996669 ) ;
#40 = EDGE_LOOP ( 'NONE', ( #33 ) ) ;
#41 = FACE_OUTER_BOUND ( 'NONE', #190, .T. ) ;
#42 = DIRECTION ( 'NONE',  ( -3.491481338843133355E-15, 4.327174794786742882E-16, -1.000000000000000000 ) ) ;
#43 = LOCAL_TIME ( 14, 56, 49.00000000000000000, #70 ) ;
#44 = DIRECTION ( 'NONE',  ( -3.491481338843133355E-15, 4.327174794786742882E-16, -1.000000000000000000 ) ) ;
#45 = VERTEX_POINT ( 'NONE', #103 ) ;
#46 = CARTESIAN_POINT ( 'NONE',  ( 6.040262716198620074E-14, 1.149999999999997691, 17.30000000000000071 ) ) ;
#47 = AXIS2_PLACEMENT_3D ( 'NONE', #102, #139, #117 ) ;
#48 = MANIFOLD_SOLID_BREP ( 'Corps-Déplacer/Copier1[1]', #183 ) ;
#49 = PERSON_AND_ORGANIZATION_ROLE ( 'design_owner' ) ;
#50 = UNCERTAINTY_MEASURE_WITH_UNIT (LENGTH_MEASURE( 1.000000000000000082E-05 ), #64, 'distance_accuracy_value', 'NONE');
#51 = APPROVAL_STATUS ( 'not_yet_approved' ) ;
#52 = ORIENTED_EDGE ( 'NONE', *, *, #60, .T. ) ;
#53 = APPLICATION_PROTOCOL_DEFINITION ( 'international standard', 'config_control_design', 1994, #161 ) ;
#54 = LOCAL_TIME ( 14, 56, 49.00000000000000000, #36 ) ;
#55 = SHAPE_DEFINITION_REPRESENTATION ( #84, #112 ) ;
#56 = ORIENTED_EDGE ( 'NONE', *, *, #79, .T. ) ;
#57 = PERSON_AND_ORGANIZATION ( #223, #213 ) ;
#58 = FACE_BOUND ( 'NONE', #168, .T. ) ;
#59 = FACE_OUTER_BOUND ( 'NONE', #222, .T. ) ;
#60 = EDGE_CURVE ( 'NONE', #164, #164, #63, .T. ) ;
#61 = CARTESIAN_POINT ( 'NONE',  ( 5.237222008264700033E-14, 1.499759782661848029E-32, 15.00000000000000000 ) ) ;
#62 = VERTEX_POINT ( 'NONE', #185 ) ;
#63 = CIRCLE ( 'NONE', #144, 1.499999999999996447 ) ;
#64 =( LENGTH_UNIT ( ) NAMED_UNIT ( * ) SI_UNIT ( .MILLI., .METRE. ) );
#65 = APPROVAL ( #147, 'UNSPECIFIED' ) ;
#66 = DIRECTION ( 'NONE',  ( 0.0000000000000000000, 0.0000000000000000000, 1.000000000000000000 ) ) ;
#67 = DESIGN_CONTEXT ( 'detailed design', #161, 'design' ) ;
#68 = CARTESIAN_POINT ( 'NONE',  ( 6.040262716198620074E-14, -7.486012394981064870E-15, 17.30000000000000071 ) ) ;
#69 = CONICAL_SURFACE ( 'NONE', #3, 2.500000000000003109, 0.2617993877991505181 ) ;
#70 = COORDINATED_UNIVERSAL_TIME_OFFSET ( 1, 0, .AHEAD. ) ;
#71 = SECURITY_CLASSIFICATION_LEVEL ( 'unclassified' ) ;
#72 = ADVANCED_FACE ( 'NONE', ( #108, #58 ), #260, .T. ) ;
#73 = CC_DESIGN_APPROVAL ( #250, ( #151 ) ) ;
#74 = DATE_TIME_ROLE ( 'classification_date' ) ;
#75 = EDGE_LOOP ( 'NONE', ( #188 ) ) ;
#76 = PERSON_AND_ORGANIZATION_ROLE ( 'creator' ) ;
#77 = EDGE_LOOP ( 'NONE', ( #6 ) ) ;
#78 = FACE_OUTER_BOUND ( 'NONE', #91, .T. ) ;
#79 = EDGE_CURVE ( 'NONE', #225, #225, #120, .T. ) ;
#80 = CARTESIAN_POINT ( 'NONE',  ( 6.040262716198620074E-14, -7.372574772901430151E-15, 17.30000000000000071 ) ) ;
#81 = PLANE ( 'NONE',  #101 ) ;
#82 = CARTESIAN_POINT ( 'NONE',  ( 2.541590561669638548E-15, -8.914699647580411499E-17, 0.7279404685324105673 ) ) ;
#83 = AXIS2_PLACEMENT_3D ( 'NONE', #226, #118, #208 ) ;
#84 = PRODUCT_DEFINITION_SHAPE ( 'NONE', 'NONE',  #140 ) ;
#85 = CC_DESIGN_APPROVAL ( #143, ( #180 ) ) ;
#86 = APPLICATION_PROTOCOL_DEFINITION ( 'international standard', 'config_control_design', 1994, #131 ) ;
#87 = CC_DESIGN_PERSON_AND_ORGANIZATION_ASSIGNMENT ( #248, #194, ( #180 ) ) ;
#88 = ORIENTED_EDGE ( 'NONE', *, *, #236, .F. ) ;
#89 = CYLINDRICAL_SURFACE ( 'NONE', #47, 1.150000000000002576 ) ;
#90 = CIRCLE ( 'NONE', #121, 1.150000000000005240 ) ;
#91 = EDGE_LOOP ( 'NONE', ( #106 ) ) ;
#92 = CALENDAR_DATE ( 2021, 13, 10 ) ;
#93 = DIRECTION ( 'NONE',  ( 0.0000000000000000000, -1.000000000000000000, 0.0000000000000000000 ) ) ;
#94 = CARTESIAN_POINT ( 'NONE',  ( 5.237222008264700033E-14, 1.499759782661848029E-32, 15.00000000000000000 ) ) ;
#95 = DIRECTION ( 'NONE',  ( -4.275831445896958607E-31, -1.000000000000000000, -1.224646799147353207E-16 ) ) ;
#96 = CARTESIAN_POINT ( 'NONE',  ( 5.237222008264700033E-14, -6.490762192180113534E-15, 15.00000000000000000 ) ) ;
#97 = CC_DESIGN_APPROVAL ( #65, ( #140 ) ) ;
#98 = DIRECTION ( 'NONE',  ( 3.491481338843133355E-15, -4.327174794786742882E-16, 1.000000000000000000 ) ) ;
#99 = ADVANCED_FACE ( 'NONE', ( #215 ), #81, .F. ) ;
#100 = FACE_OUTER_BOUND ( 'NONE', #253, .T. ) ;
#101 = AXIS2_PLACEMENT_3D ( 'NONE', #94, #130, #238 ) ;
#102 = CARTESIAN_POINT ( 'NONE',  ( 0.0000000000000000000, 0.0000000000000000000, 0.0000000000000000000 ) ) ;
#103 = CARTESIAN_POINT ( 'NONE',  ( 6.130628902809887074E-14, 1.184074173710929934, 17.55881904510252056 ) ) ;
#104 = CARTESIAN_POINT ( 'NONE',  ( 5.237222008264700033E-14, -1.150000000000009015, 15.00000000000000000 ) ) ;
#105 =( GEOMETRIC_REPRESENTATION_CONTEXT ( 3 ) GLOBAL_UNCERTAINTY_ASSIGNED_CONTEXT ( ( #50 ) ) GLOBAL_UNIT_ASSIGNED_CONTEXT ( ( #64, #122, #263 ) ) REPRESENTATION_CONTEXT ( 'NONE', 'WORKASPACE' ) );
#106 = ORIENTED_EDGE ( 'NONE', *, *, #182, .T. ) ;
#107 = PERSON_AND_ORGANIZATION_ROLE ( 'classification_officer' ) ;
#108 = FACE_OUTER_BOUND ( 'NONE', #146, .T. ) ;
#109 = FACE_OUTER_BOUND ( 'NONE', #40, .T. ) ;
#110 = CONICAL_SURFACE ( 'NONE', #32, 1.999999999999989120, 1.221730476396026388 ) ;
#111 = APPROVAL_DATE_TIME ( #192, #250 ) ;
#112 = ADVANCED_BREP_SHAPE_REPRESENTATION ( '960140', ( #48, #127, #175 ), #105 ) ;
#113 = DIRECTION ( 'NONE',  ( 4.275831445896959482E-31, 1.000000000000000000, 1.224646799147353207E-16 ) ) ;
#114 = DIRECTION ( 'NONE',  ( 0.0000000000000000000, 1.000000000000000000, 0.0000000000000000000 ) ) ;
#115 = ADVANCED_FACE ( 'NONE', ( #172, #41 ), #257, .T. ) ;
#116 = AXIS2_PLACEMENT_3D ( 'NONE', #173, #37, #156 ) ;
#117 = DIRECTION ( 'NONE',  ( 1.510825004591027679E-30, 1.000000000000000000, 4.327174794786742882E-16 ) ) ;
#118 = DIRECTION ( 'NONE',  ( -3.491481338843133355E-15, 1.224646799147353207E-16, -1.000000000000000000 ) ) ;
#119 = VERTEX_POINT ( 'NONE', #178 ) ;
#120 = CIRCLE ( 'NONE', #145, 1.150000000000002576 ) ;
#121 = AXIS2_PLACEMENT_3D ( 'NONE', #68, #44, #200 ) ;
#122 =( NAMED_UNIT ( * ) PLANE_ANGLE_UNIT ( ) SI_UNIT ( $, .RADIAN. ) );
#123 = TOROIDAL_SURFACE ( 'NONE', #14, 2.150000000000005684, 1.000000000000000444 ) ;
#124 = APPROVAL_PERSON_ORGANIZATION ( #256, #143, #229 ) ;
#125 = CALENDAR_DATE ( 2021, 13, 10 ) ;
#126 = EDGE_LOOP ( 'NONE', ( #31 ) ) ;
#127 = MANIFOLD_SOLID_BREP ( 'Corps-Déplacer/Copier1[2]', #150 ) ;
#128 = APPROVAL_DATE_TIME ( #211, #65 ) ;
#129 = FACE_OUTER_BOUND ( 'NONE', #11, .T. ) ;
#130 = DIRECTION ( 'NONE',  ( 3.491481338843133355E-15, -1.224646799147353207E-16, 1.000000000000000000 ) ) ;
#131 = APPLICATION_CONTEXT ( 'configuration controlled 3d designs of mechanical parts and assemblies' ) ;
#132 = CC_DESIGN_PERSON_AND_ORGANIZATION_ASSIGNMENT ( #218, #76, ( #180 ) ) ;
#133 = PERSON_AND_ORGANIZATION ( #223, #213 ) ;
#134 = PLANE ( 'NONE',  #254 ) ;
#135 = AXIS2_PLACEMENT_3D ( 'NONE', #193, #174, #196 ) ;
#136 = CARTESIAN_POINT ( 'NONE',  ( 0.0000000000000000000, 0.0000000000000000000, 0.0000000000000000000 ) ) ;
#137 = DIRECTION ( 'NONE',  ( -3.491481338843133355E-15, 1.224646799147353207E-16, -1.000000000000000000 ) ) ;
#138 = AXIS2_PLACEMENT_3D ( 'NONE', #240, #137, #114 ) ;
#139 = DIRECTION ( 'NONE',  ( -3.491481338843133355E-15, 4.327174794786742882E-16, -1.000000000000000000 ) ) ;
#140 = PRODUCT_DEFINITION ( 'UNKNOWN', '', #180, #67 ) ;
#141 = FACE_OUTER_BOUND ( 'NONE', #239, .T. ) ;
#142 = CIRCLE ( 'NONE', #204, 1.184074173710937483 ) ;
#143 = APPROVAL ( #251, 'UNSPECIFIED' ) ;
#144 = AXIS2_PLACEMENT_3D ( 'NONE', #158, #177, #234 ) ;
#145 = AXIS2_PLACEMENT_3D ( 'NONE', #96, #21, #93 ) ;
#146 = EDGE_LOOP ( 'NONE', ( #235 ) ) ;
#147 = APPROVAL_STATUS ( 'not_yet_approved' ) ;
#148 = CC_DESIGN_PERSON_AND_ORGANIZATION_ASSIGNMENT ( #10, #34, ( #140 ) ) ;
#149 = DATE_AND_TIME ( #8, #242 ) ;
#150 = CLOSED_SHELL ( 'NONE', ( #258, #176, #201 ) ) ;
#151 = SECURITY_CLASSIFICATION ( '', '', #71 ) ;
#152 = DATE_AND_TIME ( #169, #54 ) ;
#153 = ORIENTED_EDGE ( 'NONE', *, *, #79, .F. ) ;
#154 = EDGE_CURVE ( 'NONE', #119, #119, #28, .T. ) ;
#155 = PERSON_AND_ORGANIZATION ( #223, #213 ) ;
#156 = DIRECTION ( 'NONE',  ( -5.024165072314516851E-31, -1.000000000000000000, -1.414176746720219949E-16 ) ) ;
#157 = DIRECTION ( 'NONE',  ( -3.491481338843133355E-15, 4.327174794786742882E-16, -1.000000000000000000 ) ) ;
#158 = CARTESIAN_POINT ( 'NONE',  ( 2.164718430082742680E-13, -7.592810154713590230E-15, 62.00000000000000000 ) ) ;
#159 = DIRECTION ( 'NONE',  ( 0.0000000000000000000, 1.000000000000000000, 0.0000000000000000000 ) ) ;
#160 = MECHANICAL_CONTEXT ( 'NONE', #131, 'mechanical' ) ;
#161 = APPLICATION_CONTEXT ( 'configuration controlled 3d designs of mechanical parts and assemblies' ) ;
#162 = DIRECTION ( 'NONE',  ( 3.491481338843133355E-15, -1.224646799147353207E-16, 1.000000000000000000 ) ) ;
#163 = EDGE_CURVE ( 'NONE', #24, #24, #237, .T. ) ;
#164 = VERTEX_POINT ( 'NONE', #243 ) ;
#165 = ORIENTED_EDGE ( 'NONE', *, *, #230, .F. ) ;
#166 = APPROVAL_ROLE ( '' ) ;
#167 = COORDINATED_UNIVERSAL_TIME_OFFSET ( 1, 0, .AHEAD. ) ;
#168 = EDGE_LOOP ( 'NONE', ( #52 ) ) ;
#169 = CALENDAR_DATE ( 2021, 13, 10 ) ;
#170 = DIRECTION ( 'NONE',  ( 0.0000000000000000000, 1.000000000000000000, 0.0000000000000000000 ) ) ;
#171 = COORDINATED_UNIVERSAL_TIME_OFFSET ( 1, 0, .AHEAD. ) ;
#172 = FACE_OUTER_BOUND ( 'NONE', #75, .T. ) ;
#173 = CARTESIAN_POINT ( 'NONE',  ( 1.461414572960053209E-15, -5.125952297358776301E-17, 0.4185657694061392653 ) ) ;
#174 = DIRECTION ( 'NONE',  ( -3.491481338843133355E-15, 1.224646799147353207E-16, -1.000000000000000000 ) ) ;
#175 = AXIS2_PLACEMENT_3D ( 'NONE', #244, #66, #205 ) ;
#176 = ADVANCED_FACE ( 'NONE', ( #262, #109 ), #259, .T. ) ;
#177 = DIRECTION ( 'NONE',  ( -3.491481338843133355E-15, 1.224646799147353207E-16, -1.000000000000000000 ) ) ;
#178 = CARTESIAN_POINT ( 'NONE',  ( 1.461414572960052618E-15, -1.150000000000002576, 0.4185657694061390988 ) ) ;
#179 = PRODUCT ( '960140', '960140', '', ( #160 ) ) ;
#180 = PRODUCT_DEFINITION_FORMATION_WITH_SPECIFIED_SOURCE ( 'ANY', '', #179, .NOT_KNOWN. ) ;
#181 = FACE_OUTER_BOUND ( 'NONE', #212, .T. ) ;
#182 = EDGE_CURVE ( 'NONE', #45, #45, #142, .T. ) ;
#183 = CLOSED_SHELL ( 'NONE', ( #115, #72, #227, #246, #214, #22, #99 ) ) ;
#184 = LOCAL_TIME ( 14, 56, 49.00000000000000000, #167 ) ;
#185 = CARTESIAN_POINT ( 'NONE',  ( 2.147261023388527077E-13, 1.999999999999989120, 61.50000000000000000 ) ) ;
#186 = ORIENTED_EDGE ( 'NONE', *, *, #154, .T. ) ;
#187 = VERTEX_POINT ( 'NONE', #46 ) ;
#188 = ORIENTED_EDGE ( 'NONE', *, *, #236, .T. ) ;
#189 = AXIS2_PLACEMENT_3D ( 'NONE', #255, #217, #113 ) ;
#190 = EDGE_LOOP ( 'NONE', ( #247 ) ) ;
#191 = CC_DESIGN_PERSON_AND_ORGANIZATION_ASSIGNMENT ( #228, #49, ( #179 ) ) ;
#192 = DATE_AND_TIME ( #125, #184 ) ;
#193 = CARTESIAN_POINT ( 'NONE',  ( 5.237222008264700033E-14, -6.490762192180113534E-15, 15.00000000000000000 ) ) ;
#194 = PERSON_AND_ORGANIZATION_ROLE ( 'design_supplier' ) ;
#195 = CARTESIAN_POINT ( 'NONE',  ( 7.845331016335019127E-14, -9.723127617199842293E-15, 22.46992108780534991 ) ) ;
#196 = DIRECTION ( 'NONE',  ( 0.0000000000000000000, -1.000000000000000000, 0.0000000000000000000 ) ) ;
#197 = DIRECTION ( 'NONE',  ( -3.491481338843133355E-15, 1.224646799147353207E-16, -1.000000000000000000 ) ) ;
#198 = FACE_OUTER_BOUND ( 'NONE', #252, .T. ) ;
#199 = LOCAL_TIME ( 14, 56, 49.00000000000000000, #12 ) ;
#200 = DIRECTION ( 'NONE',  ( 0.0000000000000000000, 1.000000000000000000, 0.0000000000000000000 ) ) ;
#201 = ADVANCED_FACE ( 'NONE', ( #198 ), #134, .T. ) ;
#202 = CARTESIAN_POINT ( 'NONE',  ( 5.237222008264700033E-14, -1.150000000000009015, 15.00000000000000000 ) ) ;
#203 = PLANE ( 'NONE',  #83 ) ;
#204 = AXIS2_PLACEMENT_3D ( 'NONE', #220, #42, #159 ) ;
#205 = DIRECTION ( 'NONE',  ( 1.000000000000000000, 0.0000000000000000000, 0.0000000000000000000 ) ) ;
#206 = ORIENTED_EDGE ( 'NONE', *, *, #182, .F. ) ;
#207 = APPROVAL_PERSON_ORGANIZATION ( #57, #65, #166 ) ;
#208 = DIRECTION ( 'NONE',  ( 4.275831445896958607E-31, 1.000000000000000000, 1.224646799147353207E-16 ) ) ;
#209 = EDGE_CURVE ( 'NONE', #62, #62, #39, .T. ) ;
#210 = EDGE_LOOP ( 'NONE', ( #206 ) ) ;
#211 = DATE_AND_TIME ( #19, #199 ) ;
#212 = EDGE_LOOP ( 'NONE', ( #186 ) ) ;
#213 = ORGANIZATION ( 'UNSPECIFIED', 'UNSPECIFIED', '' ) ;
#214 = ADVANCED_FACE ( 'NONE', ( #23, #129 ), #69, .T. ) ;
#215 = FACE_OUTER_BOUND ( 'NONE', #77, .T. ) ;
#216 = APPROVAL_DATE_TIME ( #152, #143 ) ;
#217 = DIRECTION ( 'NONE',  ( -3.491481338843133355E-15, 1.224646799147353207E-16, -1.000000000000000000 ) ) ;
#218 = PERSON_AND_ORGANIZATION ( #223, #213 ) ;
#219 = AXIS2_PLACEMENT_3D ( 'NONE', #27, #5, #30 ) ;
#220 = CARTESIAN_POINT ( 'NONE',  ( 6.130628902809887074E-14, -7.598007919818906882E-15, 17.55881904510252056 ) ) ;
#221 = CARTESIAN_POINT ( 'NONE',  ( 2.164718430082742680E-13, -7.592810154713590230E-15, 62.00000000000000000 ) ) ;
#222 = EDGE_LOOP ( 'NONE', ( #165 ) ) ;
#223 = PERSON ( 'UNSPECIFIED', 'UNSPECIFIED', 'UNSPECIFIED', ('UNSPECIFIED'), ('UNSPECIFIED'), ('UNSPECIFIED') ) ;
#224 = CC_DESIGN_SECURITY_CLASSIFICATION ( #151, ( #180 ) ) ;
#225 = VERTEX_POINT ( 'NONE', #202 ) ;
#226 = CARTESIAN_POINT ( 'NONE',  ( 2.164718430082742680E-13, 1.124819836996379248E-32, 62.00000000000000000 ) ) ;
#227 = ADVANCED_FACE ( 'NONE', ( #141 ), #203, .F. ) ;
#228 = PERSON_AND_ORGANIZATION ( #223, #213 ) ;
#229 = APPROVAL_ROLE ( '' ) ;
#230 = EDGE_CURVE ( 'NONE', #187, #187, #90, .T. ) ;
#231 = DATE_TIME_ROLE ( 'creation_date' ) ;
#232 = AXIS2_PLACEMENT_3D ( 'NONE', #136, #157, #261 ) ;
#233 = EDGE_LOOP ( 'NONE', ( #56 ) ) ;
#234 = DIRECTION ( 'NONE',  ( 0.0000000000000000000, 1.000000000000000000, 0.0000000000000000000 ) ) ;
#235 = ORIENTED_EDGE ( 'NONE', *, *, #209, .F. ) ;
#236 = EDGE_CURVE ( 'NONE', #4, #4, #7, .T. ) ;
#237 = CIRCLE ( 'NONE', #135, 1.150000000000002576 ) ;
#238 = DIRECTION ( 'NONE',  ( -4.275831445896958607E-31, -1.000000000000000000, -1.224646799147353207E-16 ) ) ;
#239 = EDGE_LOOP ( 'NONE', ( #249 ) ) ;
#240 = CARTESIAN_POINT ( 'NONE',  ( 2.147261023388527077E-13, -7.531577814756222656E-15, 61.50000000000000000 ) ) ;
#241 = CARTESIAN_POINT ( 'NONE',  ( 7.193811728822950310E-14, -2.000000000000003109, 20.60389568402088400 ) ) ;
#242 = LOCAL_TIME ( 14, 56, 49.00000000000000000, #171 ) ;
#243 = CARTESIAN_POINT ( 'NONE',  ( 2.164718430082742680E-13, 1.499999999999988676, 62.00000000000000000 ) ) ;
#244 = CARTESIAN_POINT ( 'NONE',  ( 0.0000000000000000000, 0.0000000000000000000, 0.0000000000000000000 ) ) ;
#245 = PRODUCT_RELATED_PRODUCT_CATEGORY ( 'detail', '', ( #179 ) ) ;
#246 = ADVANCED_FACE ( 'NONE', ( #100, #25 ), #89, .T. ) ;
#247 = ORIENTED_EDGE ( 'NONE', *, *, #209, .T. ) ;
#248 = PERSON_AND_ORGANIZATION ( #223, #213 ) ;
#249 = ORIENTED_EDGE ( 'NONE', *, *, #60, .F. ) ;
#250 = APPROVAL ( #51, 'UNSPECIFIED' ) ;
#251 = APPROVAL_STATUS ( 'not_yet_approved' ) ;
#252 = EDGE_LOOP ( 'NONE', ( #153 ) ) ;
#253 = EDGE_LOOP ( 'NONE', ( #29 ) ) ;
#254 = AXIS2_PLACEMENT_3D ( 'NONE', #61, #20, #95 ) ;
#255 = CARTESIAN_POINT ( 'NONE',  ( 0.0000000000000000000, 0.0000000000000000000, 0.0000000000000000000 ) ) ;
#256 = PERSON_AND_ORGANIZATION ( #223, #213 ) ;
#257 = CYLINDRICAL_SURFACE ( 'NONE', #189, 1.999999999999994005 ) ;
#258 = ADVANCED_FACE ( 'NONE', ( #181 ), #110, .T. ) ;
#259 = CYLINDRICAL_SURFACE ( 'NONE', #232, 1.150000000000002576 ) ;
#260 = CONICAL_SURFACE ( 'NONE', #26, 1.499999999999996447, 0.7853981633974480570 ) ;
#261 = DIRECTION ( 'NONE',  ( 1.510825004591027679E-30, 1.000000000000000000, 4.327174794786742882E-16 ) ) ;
#262 = FACE_OUTER_BOUND ( 'NONE', #233, .T. ) ;
#263 =( NAMED_UNIT ( * ) SI_UNIT ( $, .STERADIAN. ) SOLID_ANGLE_UNIT ( ) );
ENDSEC;
END-ISO-10303-21;
