ISO-10303-21;
HEADER;
FILE_DESCRIPTION (( 'STEP AP203' ),
    '1' );
FILE_NAME ('960139.step',
    '2021-10-13T12:56:49',
    ( '' ),
    ( '' ),
    'SwSTEP 2.0',
    'SolidWorks 2019',
    '' );
FILE_SCHEMA (( 'CONFIG_CONTROL_DESIGN' ));
ENDSEC;

DATA;
#1 = DIRECTION ( 'NONE',  ( 0.0000000000000000000, 1.000000000000000000, 0.0000000000000000000 ) ) ;
#2 = ADVANCED_FACE ( 'NONE', ( #128 ), #144, .T. ) ;
#3 = DIRECTION ( 'NONE',  ( -3.491481338843133355E-15, 4.327174794786742882E-16, -1.000000000000000000 ) ) ;
#4 = AXIS2_PLACEMENT_3D ( 'NONE', #111, #93, #215 ) ;
#5 = CONICAL_SURFACE ( 'NONE', #11, 1.499999999999996447, 0.7853981633974480570 ) ;
#6 = AXIS2_PLACEMENT_3D ( 'NONE', #227, #47, #166 ) ;
#7 = EDGE_LOOP ( 'NONE', ( #117 ) ) ;
#8 = CC_DESIGN_PERSON_AND_ORGANIZATION_ASSIGNMENT ( #29, #110, ( #239 ) ) ;
#9 = CARTESIAN_POINT ( 'NONE',  ( 5.851310395702436405E-14, 1.134074173710930333, 16.75881904510252340 ) ) ;
#10 = VERTEX_POINT ( 'NONE', #73 ) ;
#11 = AXIS2_PLACEMENT_3D ( 'NONE', #28, #252, #88 ) ;
#12 = VERTEX_POINT ( 'NONE', #253 ) ;
#13 = ADVANCED_FACE ( 'NONE', ( #51, #126 ), #206, .T. ) ;
#14 = FACE_OUTER_BOUND ( 'NONE', #75, .T. ) ;
#15 = CIRCLE ( 'NONE', #139, 1.100000000000002531 ) ;
#16 = PERSON_AND_ORGANIZATION ( #210, #32 ) ;
#17 = ORIENTED_EDGE ( 'NONE', *, *, #188, .F. ) ;
#18 = APPROVAL_STATUS ( 'not_yet_approved' ) ;
#19 = DIRECTION ( 'NONE',  ( 3.491481338843133355E-15, -4.327174794786742882E-16, 1.000000000000000000 ) ) ;
#20 = CARTESIAN_POINT ( 'NONE',  ( 0.0000000000000000000, 0.0000000000000000000, 0.0000000000000000000 ) ) ;
#21 = AXIS2_PLACEMENT_3D ( 'NONE', #168, #261, #244 ) ;
#22 = CIRCLE ( 'NONE', #174, 1.499999999999996447 ) ;
#23 = FACE_OUTER_BOUND ( 'NONE', #37, .T. ) ;
#24 = PLANE ( 'NONE',  #6 ) ;
#25 = EDGE_LOOP ( 'NONE', ( #127 ) ) ;
#26 = AXIS2_PLACEMENT_3D ( 'NONE', #154, #172, #53 ) ;
#27 =( NAMED_UNIT ( * ) SI_UNIT ( $, .STERADIAN. ) SOLID_ANGLE_UNIT ( ) );
#28 = CARTESIAN_POINT ( 'NONE',  ( 2.164718430082742680E-13, -7.592810154713590230E-15, 62.00000000000000000 ) ) ;
#29 = PERSON_AND_ORGANIZATION ( #210, #32 ) ;
#30 = FACE_BOUND ( 'NONE', #233, .T. ) ;
#31 = AXIS2_PLACEMENT_3D ( 'NONE', #132, #235, #211 ) ;
#32 = ORGANIZATION ( 'UNSPECIFIED', 'UNSPECIFIED', '' ) ;
#33 = AXIS2_PLACEMENT_3D ( 'NONE', #169, #242, #230 ) ;
#34 =( LENGTH_UNIT ( ) NAMED_UNIT ( * ) SI_UNIT ( .MILLI., .METRE. ) );
#35 = APPROVAL_STATUS ( 'not_yet_approved' ) ;
#36 = APPROVAL_ROLE ( '' ) ;
#37 = EDGE_LOOP ( 'NONE', ( #180 ) ) ;
#38 = CC_DESIGN_SECURITY_CLASSIFICATION ( #138, ( #71 ) ) ;
#39 = APPROVAL ( #18, 'UNSPECIFIED' ) ;
#40 = PERSON_AND_ORGANIZATION_ROLE ( 'creator' ) ;
#41 = DATE_AND_TIME ( #99, #77 ) ;
#42 = EDGE_LOOP ( 'NONE', ( #146 ) ) ;
#43 = APPROVAL ( #202, 'UNSPECIFIED' ) ;
#44 =( GEOMETRIC_REPRESENTATION_CONTEXT ( 3 ) GLOBAL_UNCERTAINTY_ASSIGNED_CONTEXT ( ( #176 ) ) GLOBAL_UNIT_ASSIGNED_CONTEXT ( ( #34, #112, #27 ) ) REPRESENTATION_CONTEXT ( 'NONE', 'WORKASPACE' ) );
#45 = AXIS2_PLACEMENT_3D ( 'NONE', #108, #66, #186 ) ;
#46 = ORIENTED_EDGE ( 'NONE', *, *, #125, .T. ) ;
#47 = DIRECTION ( 'NONE',  ( 3.491481338843133355E-15, -1.224646799147353207E-16, 1.000000000000000000 ) ) ;
#48 = CARTESIAN_POINT ( 'NONE',  ( 1.397874808918311851E-15, -4.903084806169263672E-17, 0.4003672576928288263 ) ) ;
#49 = DIRECTION ( 'NONE',  ( -3.491481338843133355E-15, 1.224646799147353207E-16, -1.000000000000000000 ) ) ;
#50 = CARTESIAN_POINT ( 'NONE',  ( 4.992818314545680698E-14, -6.187859956545042795E-15, 14.30000000000000071 ) ) ;
#51 = FACE_OUTER_BOUND ( 'NONE', #25, .T. ) ;
#52 = CC_DESIGN_PERSON_AND_ORGANIZATION_ASSIGNMENT ( #16, #197, ( #138 ) ) ;
#53 = DIRECTION ( 'NONE',  ( 1.000000000000000000, 0.0000000000000000000, 0.0000000000000000000 ) ) ;
#54 = VERTEX_POINT ( 'NONE', #156 ) ;
#55 = FACE_OUTER_BOUND ( 'NONE', #120, .T. ) ;
#56 = CARTESIAN_POINT ( 'NONE',  ( 5.760944209091170667E-14, 1.099999999999997868, 16.50000000000000000 ) ) ;
#57 = COORDINATED_UNIVERSAL_TIME_OFFSET ( 1, 0, .AHEAD. ) ;
#58 = ORIENTED_EDGE ( 'NONE', *, *, #95, .F. ) ;
#59 = APPROVAL_ROLE ( '' ) ;
#60 = ORIENTED_EDGE ( 'NONE', *, *, #95, .T. ) ;
#61 = ORIENTED_EDGE ( 'NONE', *, *, #160, .F. ) ;
#62 = PERSON_AND_ORGANIZATION ( #210, #32 ) ;
#63 = CIRCLE ( 'NONE', #129, 1.100000000000002531 ) ;
#64 = TOROIDAL_SURFACE ( 'NONE', #150, 2.100000000000005418, 1.000000000000000444 ) ;
#65 = DIRECTION ( 'NONE',  ( -3.501690807976784259E-31, -1.000000000000000000, -9.856383386231835408E-17 ) ) ;
#66 = DIRECTION ( 'NONE',  ( -3.491481338843133355E-15, 4.327174794786742882E-16, -1.000000000000000000 ) ) ;
#67 = EDGE_LOOP ( 'NONE', ( #225 ) ) ;
#68 = CC_DESIGN_APPROVAL ( #43, ( #85 ) ) ;
#69 = CC_DESIGN_DATE_AND_TIME_ASSIGNMENT ( #162, #76, ( #138 ) ) ;
#70 = DIRECTION ( 'NONE',  ( -3.491481338843133355E-15, 1.224646799147353207E-16, -1.000000000000000000 ) ) ;
#71 = PRODUCT_DEFINITION_FORMATION_WITH_SPECIFIED_SOURCE ( 'ANY', '', #239, .NOT_KNOWN. ) ;
#72 = CYLINDRICAL_SURFACE ( 'NONE', #229, 1.999999999999994005 ) ;
#73 = CARTESIAN_POINT ( 'NONE',  ( 4.992818314545680698E-14, -1.100000000000008749, 14.30000000000000071 ) ) ;
#74 = ADVANCED_FACE ( 'NONE', ( #204, #122 ), #207, .T. ) ;
#75 = EDGE_LOOP ( 'NONE', ( #61 ) ) ;
#76 = DATE_TIME_ROLE ( 'classification_date' ) ;
#77 = LOCAL_TIME ( 14, 56, 49.00000000000000000, #258 ) ;
#78 = ADVANCED_FACE ( 'NONE', ( #103 ), #24, .F. ) ;
#79 = PERSON_AND_ORGANIZATION_ROLE ( 'creator' ) ;
#80 = CALENDAR_DATE ( 2021, 13, 10 ) ;
#81 = DIRECTION ( 'NONE',  ( 1.510825004591027679E-30, 1.000000000000000000, 4.327174794786742389E-16 ) ) ;
#82 = DIRECTION ( 'NONE',  ( 0.0000000000000000000, 1.000000000000000000, 0.0000000000000000000 ) ) ;
#83 = DIRECTION ( 'NONE',  ( 1.510825004591027855E-30, 1.000000000000000000, 4.327174794786742882E-16 ) ) ;
#84 = DIRECTION ( 'NONE',  ( -3.491481338843133355E-15, 1.224646799147353207E-16, -1.000000000000000000 ) ) ;
#85 = PRODUCT_DEFINITION ( 'UNKNOWN', '', #71, #92 ) ;
#86 = CIRCLE ( 'NONE', #130, 1.100000000000002531 ) ;
#87 = DIRECTION ( 'NONE',  ( -3.491481338843133355E-15, 1.224646799147353207E-16, -1.000000000000000000 ) ) ;
#88 = DIRECTION ( 'NONE',  ( 0.0000000000000000000, 1.000000000000000000, 0.0000000000000000000 ) ) ;
#89 = PRODUCT_RELATED_PRODUCT_CATEGORY ( 'detail', '', ( #239 ) ) ;
#90 = CIRCLE ( 'NONE', #124, 1.999999999999996669 ) ;
#91 = CONICAL_SURFACE ( 'NONE', #4, 2.500000000000003109, 0.2617993877991504625 ) ;
#92 = DESIGN_CONTEXT ( 'detailed design', #262, 'design' ) ;
#93 = DIRECTION ( 'NONE',  ( 3.491481338843133355E-15, -4.327174794786742882E-16, 1.000000000000000000 ) ) ;
#94 = FACE_OUTER_BOUND ( 'NONE', #136, .T. ) ;
#95 = EDGE_CURVE ( 'NONE', #10, #10, #86, .T. ) ;
#96 = PERSON_AND_ORGANIZATION ( #210, #32 ) ;
#97 = ORIENTED_EDGE ( 'NONE', *, *, #181, .T. ) ;
#98 = PRODUCT_DEFINITION_SHAPE ( 'NONE', 'NONE',  #85 ) ;
#99 = CALENDAR_DATE ( 2021, 13, 10 ) ;
#100 = ORIENTED_EDGE ( 'NONE', *, *, #134, .F. ) ;
#101 = APPROVAL_DATE_TIME ( #41, #39 ) ;
#102 = FACE_OUTER_BOUND ( 'NONE', #42, .T. ) ;
#103 = FACE_OUTER_BOUND ( 'NONE', #67, .T. ) ;
#104 = LOCAL_TIME ( 14, 56, 49.00000000000000000, #135 ) ;
#105 = AXIS2_PLACEMENT_3D ( 'NONE', #20, #183, #81 ) ;
#106 = PLANE ( 'NONE',  #191 ) ;
#107 = DIRECTION ( 'NONE',  ( -3.491481338843133355E-15, 1.224646799147353207E-16, -1.000000000000000000 ) ) ;
#108 = CARTESIAN_POINT ( 'NONE',  ( 5.851310395702436405E-14, -7.251833936235966189E-15, 16.75881904510252340 ) ) ;
#109 = VERTEX_POINT ( 'NONE', #131 ) ;
#110 = PERSON_AND_ORGANIZATION_ROLE ( 'design_owner' ) ;
#111 = CARTESIAN_POINT ( 'NONE',  ( 7.631164437978772942E-14, -9.457699814553782274E-15, 21.85652362818379757 ) ) ;
#112 =( NAMED_UNIT ( * ) PLANE_ANGLE_UNIT ( ) SI_UNIT ( $, .RADIAN. ) );
#113 = CC_DESIGN_PERSON_AND_ORGANIZATION_ASSIGNMENT ( #218, #217, ( #71 ) ) ;
#114 = APPROVAL_PERSON_ORGANIZATION ( #62, #43, #59 ) ;
#115 = ORIENTED_EDGE ( 'NONE', *, *, #121, .F. ) ;
#116 = DATE_TIME_ROLE ( 'creation_date' ) ;
#117 = ORIENTED_EDGE ( 'NONE', *, *, #143, .F. ) ;
#118 = PERSON_AND_ORGANIZATION ( #210, #32 ) ;
#119 = DATE_AND_TIME ( #141, #104 ) ;
#120 = EDGE_LOOP ( 'NONE', ( #219 ) ) ;
#121 = EDGE_CURVE ( 'NONE', #255, #255, #15, .T. ) ;
#122 = FACE_OUTER_BOUND ( 'NONE', #178, .T. ) ;
#123 = CARTESIAN_POINT ( 'NONE',  ( 6.979645150466705388E-14, -8.650238005184991320E-15, 19.99049822439933166 ) ) ;
#124 = AXIS2_PLACEMENT_3D ( 'NONE', #182, #246, #1 ) ;
#125 = EDGE_CURVE ( 'NONE', #109, #109, #22, .T. ) ;
#126 = FACE_OUTER_BOUND ( 'NONE', #7, .T. ) ;
#127 = ORIENTED_EDGE ( 'NONE', *, *, #188, .T. ) ;
#128 = FACE_OUTER_BOUND ( 'NONE', #198, .T. ) ;
#129 = AXIS2_PLACEMENT_3D ( 'NONE', #50, #84, #170 ) ;
#130 = AXIS2_PLACEMENT_3D ( 'NONE', #208, #107, #263 ) ;
#131 = CARTESIAN_POINT ( 'NONE',  ( 2.164718430082742680E-13, 1.499999999999988676, 62.00000000000000000 ) ) ;
#132 = CARTESIAN_POINT ( 'NONE',  ( 2.541590561669638548E-15, -8.914699647580411499E-17, 0.7279404685324105673 ) ) ;
#133 = CARTESIAN_POINT ( 'NONE',  ( 2.147261023388527077E-13, 1.999999999999989120, 61.50000000000000000 ) ) ;
#134 = EDGE_CURVE ( 'NONE', #238, #238, #237, .T. ) ;
#135 = COORDINATED_UNIVERSAL_TIME_OFFSET ( 1, 0, .AHEAD. ) ;
#136 = EDGE_LOOP ( 'NONE', ( #257 ) ) ;
#137 = APPROVAL_DATE_TIME ( #222, #43 ) ;
#138 = SECURITY_CLASSIFICATION ( '', '', #223 ) ;
#139 = AXIS2_PLACEMENT_3D ( 'NONE', #48, #70, #65 ) ;
#140 = EDGE_LOOP ( 'NONE', ( #100 ) ) ;
#141 = CALENDAR_DATE ( 2021, 13, 10 ) ;
#142 = CALENDAR_DATE ( 2021, 13, 10 ) ;
#143 = EDGE_CURVE ( 'NONE', #12, #12, #63, .T. ) ;
#144 = PLANE ( 'NONE',  #33 ) ;
#145 = FACE_OUTER_BOUND ( 'NONE', #203, .T. ) ;
#146 = ORIENTED_EDGE ( 'NONE', *, *, #134, .T. ) ;
#147 = CONICAL_SURFACE ( 'NONE', #31, 1.999999999999989120, 1.221730476396026388 ) ;
#148 = CARTESIAN_POINT ( 'NONE',  ( 5.760944209091170667E-14, -6.938893903907228378E-15, 16.50000000000000000 ) ) ;
#149 = DIRECTION ( 'NONE',  ( 0.0000000000000000000, -1.000000000000000000, 0.0000000000000000000 ) ) ;
#150 = AXIS2_PLACEMENT_3D ( 'NONE', #148, #184, #83 ) ;
#151 = APPROVAL ( #35, 'UNSPECIFIED' ) ;
#152 = LOCAL_TIME ( 14, 56, 49.00000000000000000, #177 ) ;
#153 = FACE_BOUND ( 'NONE', #140, .T. ) ;
#154 = CARTESIAN_POINT ( 'NONE',  ( 0.0000000000000000000, 0.0000000000000000000, 0.0000000000000000000 ) ) ;
#155 = ADVANCED_FACE ( 'NONE', ( #23 ), #106, .F. ) ;
#156 = CARTESIAN_POINT ( 'NONE',  ( 6.979645150466705388E-14, -2.000000000000002665, 19.99049822439933166 ) ) ;
#157 = CLOSED_SHELL ( 'NONE', ( #245, #74, #2 ) ) ;
#158 = CARTESIAN_POINT ( 'NONE',  ( 1.397874808918311457E-15, -1.100000000000002531, 0.4003672576928287152 ) ) ;
#159 = EDGE_LOOP ( 'NONE', ( #60 ) ) ;
#160 = EDGE_CURVE ( 'NONE', #54, #54, #187, .T. ) ;
#161 = APPROVAL_PERSON_ORGANIZATION ( #96, #39, #175 ) ;
#162 = DATE_AND_TIME ( #260, #205 ) ;
#163 = ADVANCED_FACE ( 'NONE', ( #145, #102 ), #64, .F. ) ;
#164 = COORDINATED_UNIVERSAL_TIME_OFFSET ( 1, 0, .AHEAD. ) ;
#165 = AXIS2_PLACEMENT_3D ( 'NONE', #243, #3, #232 ) ;
#166 = DIRECTION ( 'NONE',  ( -4.275831445896958607E-31, -1.000000000000000000, -1.224646799147353207E-16 ) ) ;
#167 = CC_DESIGN_PERSON_AND_ORGANIZATION_ASSIGNMENT ( #118, #40, ( #85 ) ) ;
#168 = CARTESIAN_POINT ( 'NONE',  ( 5.760944209091170667E-14, -7.139838411398125755E-15, 16.50000000000000000 ) ) ;
#169 = CARTESIAN_POINT ( 'NONE',  ( 4.992818314545680698E-14, 1.499759782661848029E-32, 14.30000000000000071 ) ) ;
#170 = DIRECTION ( 'NONE',  ( 0.0000000000000000000, -1.000000000000000000, 0.0000000000000000000 ) ) ;
#171 = DIRECTION ( 'NONE',  ( 4.275831445896959482E-31, 1.000000000000000000, 1.224646799147353207E-16 ) ) ;
#172 = DIRECTION ( 'NONE',  ( 0.0000000000000000000, 0.0000000000000000000, 1.000000000000000000 ) ) ;
#173 = FACE_OUTER_BOUND ( 'NONE', #240, .T. ) ;
#174 = AXIS2_PLACEMENT_3D ( 'NONE', #228, #87, #82 ) ;
#175 = APPROVAL_ROLE ( '' ) ;
#176 = UNCERTAINTY_MEASURE_WITH_UNIT (LENGTH_MEASURE( 1.000000000000000082E-05 ), #34, 'distance_accuracy_value', 'NONE');
#177 = COORDINATED_UNIVERSAL_TIME_OFFSET ( 1, 0, .AHEAD. ) ;
#178 = EDGE_LOOP ( 'NONE', ( #115 ) ) ;
#179 = PERSON_AND_ORGANIZATION ( #210, #32 ) ;
#180 = ORIENTED_EDGE ( 'NONE', *, *, #125, .F. ) ;
#181 = EDGE_CURVE ( 'NONE', #236, #236, #90, .T. ) ;
#182 = CARTESIAN_POINT ( 'NONE',  ( 2.147261023388527077E-13, -7.531577814756222656E-15, 61.50000000000000000 ) ) ;
#183 = DIRECTION ( 'NONE',  ( -3.491481338843133355E-15, 4.327174794786742882E-16, -1.000000000000000000 ) ) ;
#184 = DIRECTION ( 'NONE',  ( -3.491481338843133355E-15, 4.327174794786742882E-16, -1.000000000000000000 ) ) ;
#185 = CARTESIAN_POINT ( 'NONE',  ( 2.164718430082742680E-13, 1.124819836996379248E-32, 62.00000000000000000 ) ) ;
#186 = DIRECTION ( 'NONE',  ( 0.0000000000000000000, 1.000000000000000000, 0.0000000000000000000 ) ) ;
#187 = CIRCLE ( 'NONE', #226, 1.999999999999994005 ) ;
#188 = EDGE_CURVE ( 'NONE', #248, #248, #259, .T. ) ;
#189 = DIRECTION ( 'NONE',  ( -3.491481338843133355E-15, 1.224646799147353207E-16, -1.000000000000000000 ) ) ;
#190 = LOCAL_TIME ( 14, 56, 49.00000000000000000, #57 ) ;
#191 = AXIS2_PLACEMENT_3D ( 'NONE', #185, #49, #247 ) ;
#192 = CC_DESIGN_APPROVAL ( #39, ( #138 ) ) ;
#193 = FACE_OUTER_BOUND ( 'NONE', #200, .T. ) ;
#194 = CLOSED_SHELL ( 'NONE', ( #212, #254, #155, #13, #201, #163, #78 ) ) ;
#195 = DATE_AND_TIME ( #142, #190 ) ;
#196 = ORIENTED_EDGE ( 'NONE', *, *, #121, .T. ) ;
#197 = PERSON_AND_ORGANIZATION_ROLE ( 'classification_officer' ) ;
#198 = EDGE_LOOP ( 'NONE', ( #58 ) ) ;
#199 = APPROVAL_DATE_TIME ( #119, #151 ) ;
#200 = EDGE_LOOP ( 'NONE', ( #196 ) ) ;
#201 = ADVANCED_FACE ( 'NONE', ( #153, #14 ), #91, .T. ) ;
#202 = APPROVAL_STATUS ( 'not_yet_approved' ) ;
#203 = EDGE_LOOP ( 'NONE', ( #17 ) ) ;
#204 = FACE_OUTER_BOUND ( 'NONE', #159, .T. ) ;
#205 = LOCAL_TIME ( 14, 56, 49.00000000000000000, #164 ) ;
#206 = CYLINDRICAL_SURFACE ( 'NONE', #165, 1.100000000000002531 ) ;
#207 = CYLINDRICAL_SURFACE ( 'NONE', #105, 1.100000000000002531 ) ;
#208 = CARTESIAN_POINT ( 'NONE',  ( 4.992818314545680698E-14, -6.187859956545042795E-15, 14.30000000000000071 ) ) ;
#209 = CC_DESIGN_PERSON_AND_ORGANIZATION_ASSIGNMENT ( #179, #79, ( #71 ) ) ;
#210 = PERSON ( 'UNSPECIFIED', 'UNSPECIFIED', 'UNSPECIFIED', ('UNSPECIFIED'), ('UNSPECIFIED'), ('UNSPECIFIED') ) ;
#211 = DIRECTION ( 'NONE',  ( -3.851859888774492726E-31, -1.000000000000000000, -1.084202172485510350E-16 ) ) ;
#212 = ADVANCED_FACE ( 'NONE', ( #94, #173 ), #72, .T. ) ;
#213 = MECHANICAL_CONTEXT ( 'NONE', #231, 'mechanical' ) ;
#214 = MANIFOLD_SOLID_BREP ( 'Corps-Déplacer/Copier1[2]', #157 ) ;
#215 = DIRECTION ( 'NONE',  ( 0.0000000000000000000, -1.000000000000000000, 0.0000000000000000000 ) ) ;
#216 = MANIFOLD_SOLID_BREP ( 'Corps-Déplacer/Copier1[1]', #194 ) ;
#217 = PERSON_AND_ORGANIZATION_ROLE ( 'design_supplier' ) ;
#218 = PERSON_AND_ORGANIZATION ( #210, #32 ) ;
#219 = ORIENTED_EDGE ( 'NONE', *, *, #181, .F. ) ;
#220 = APPROVAL_PERSON_ORGANIZATION ( #256, #151, #36 ) ;
#221 = ADVANCED_BREP_SHAPE_REPRESENTATION ( '960139', ( #216, #214, #26 ), #44 ) ;
#222 = DATE_AND_TIME ( #80, #152 ) ;
#223 = SECURITY_CLASSIFICATION_LEVEL ( 'unclassified' ) ;
#224 = SHAPE_DEFINITION_REPRESENTATION ( #98, #221 ) ;
#225 = ORIENTED_EDGE ( 'NONE', *, *, #143, .T. ) ;
#226 = AXIS2_PLACEMENT_3D ( 'NONE', #123, #19, #149 ) ;
#227 = CARTESIAN_POINT ( 'NONE',  ( 4.992818314545680698E-14, 1.499759782661848029E-32, 14.30000000000000071 ) ) ;
#228 = CARTESIAN_POINT ( 'NONE',  ( 2.164718430082742680E-13, -7.592810154713590230E-15, 62.00000000000000000 ) ) ;
#229 = AXIS2_PLACEMENT_3D ( 'NONE', #249, #189, #171 ) ;
#230 = DIRECTION ( 'NONE',  ( -4.275831445896958607E-31, -1.000000000000000000, -1.224646799147353207E-16 ) ) ;
#231 = APPLICATION_CONTEXT ( 'configuration controlled 3d designs of mechanical parts and assemblies' ) ;
#232 = DIRECTION ( 'NONE',  ( 1.510825004591027679E-30, 1.000000000000000000, 4.327174794786742389E-16 ) ) ;
#233 = EDGE_LOOP ( 'NONE', ( #46 ) ) ;
#234 = APPLICATION_PROTOCOL_DEFINITION ( 'international standard', 'config_control_design', 1994, #231 ) ;
#235 = DIRECTION ( 'NONE',  ( 3.491481338843133355E-15, -1.224646799147353207E-16, 1.000000000000000000 ) ) ;
#236 = VERTEX_POINT ( 'NONE', #133 ) ;
#237 = CIRCLE ( 'NONE', #45, 1.134074173710937439 ) ;
#238 = VERTEX_POINT ( 'NONE', #9 ) ;
#239 = PRODUCT ( '960139', '960139', '', ( #213 ) ) ;
#240 = EDGE_LOOP ( 'NONE', ( #97 ) ) ;
#241 = APPLICATION_PROTOCOL_DEFINITION ( 'international standard', 'config_control_design', 1994, #262 ) ;
#242 = DIRECTION ( 'NONE',  ( 3.491481338843133355E-15, -1.224646799147353207E-16, 1.000000000000000000 ) ) ;
#243 = CARTESIAN_POINT ( 'NONE',  ( 0.0000000000000000000, 0.0000000000000000000, 0.0000000000000000000 ) ) ;
#244 = DIRECTION ( 'NONE',  ( 0.0000000000000000000, 1.000000000000000000, 0.0000000000000000000 ) ) ;
#245 = ADVANCED_FACE ( 'NONE', ( #193 ), #147, .T. ) ;
#246 = DIRECTION ( 'NONE',  ( -3.491481338843133355E-15, 1.224646799147353207E-16, -1.000000000000000000 ) ) ;
#247 = DIRECTION ( 'NONE',  ( 4.275831445896958607E-31, 1.000000000000000000, 1.224646799147353207E-16 ) ) ;
#248 = VERTEX_POINT ( 'NONE', #56 ) ;
#249 = CARTESIAN_POINT ( 'NONE',  ( 0.0000000000000000000, 0.0000000000000000000, 0.0000000000000000000 ) ) ;
#250 = CC_DESIGN_APPROVAL ( #151, ( #71 ) ) ;
#251 = CC_DESIGN_DATE_AND_TIME_ASSIGNMENT ( #195, #116, ( #85 ) ) ;
#252 = DIRECTION ( 'NONE',  ( -3.491481338843133355E-15, 1.224646799147353207E-16, -1.000000000000000000 ) ) ;
#253 = CARTESIAN_POINT ( 'NONE',  ( 4.992818314545680698E-14, -1.100000000000008749, 14.30000000000000071 ) ) ;
#254 = ADVANCED_FACE ( 'NONE', ( #55, #30 ), #5, .T. ) ;
#255 = VERTEX_POINT ( 'NONE', #158 ) ;
#256 = PERSON_AND_ORGANIZATION ( #210, #32 ) ;
#257 = ORIENTED_EDGE ( 'NONE', *, *, #160, .T. ) ;
#258 = COORDINATED_UNIVERSAL_TIME_OFFSET ( 1, 0, .AHEAD. ) ;
#259 = CIRCLE ( 'NONE', #21, 1.100000000000004974 ) ;
#260 = CALENDAR_DATE ( 2021, 13, 10 ) ;
#261 = DIRECTION ( 'NONE',  ( -3.491481338843133355E-15, 4.327174794786742882E-16, -1.000000000000000000 ) ) ;
#262 = APPLICATION_CONTEXT ( 'configuration controlled 3d designs of mechanical parts and assemblies' ) ;
#263 = DIRECTION ( 'NONE',  ( 0.0000000000000000000, -1.000000000000000000, 0.0000000000000000000 ) ) ;
ENDSEC;
END-ISO-10303-21;
