ISO-10303-21;
HEADER;
FILE_DESCRIPTION (( 'STEP AP203' ),
    '1' );
FILE_NAME ('960138.step',
    '2021-10-13T12:56:48',
    ( '' ),
    ( '' ),
    'SwSTEP 2.0',
    'SolidWorks 2019',
    '' );
FILE_SCHEMA (( 'CONFIG_CONTROL_DESIGN' ));
ENDSEC;

DATA;
#1 = CYLINDRICAL_SURFACE ( 'NONE', #79, 1.050000000000002709 ) ;
#2 = ORIENTED_EDGE ( 'NONE', *, *, #209, .T. ) ;
#3 = CONICAL_SURFACE ( 'NONE', #162, 1.999999999999989120, 1.221730476396026388 ) ;
#4 = AXIS2_PLACEMENT_3D ( 'NONE', #192, #72, #51 ) ;
#5 = ORIENTED_EDGE ( 'NONE', *, *, #244, .T. ) ;
#6 = FACE_OUTER_BOUND ( 'NONE', #50, .T. ) ;
#7 = CC_DESIGN_DATE_AND_TIME_ASSIGNMENT ( #105, #220, ( #57 ) ) ;
#8 = APPROVAL_PERSON_ORGANIZATION ( #83, #97, #143 ) ;
#9 = VERTEX_POINT ( 'NONE', #52 ) ;
#10 = CARTESIAN_POINT ( 'NONE',  ( 2.164718430082742680E-13, 1.499999999999988676, 62.00000000000000000 ) ) ;
#11 = DATE_TIME_ROLE ( 'classification_date' ) ;
#12 = AXIS2_PLACEMENT_3D ( 'NONE', #230, #26, #154 ) ;
#13 = PERSON_AND_ORGANIZATION_ROLE ( 'classification_officer' ) ;
#14 = EDGE_LOOP ( 'NONE', ( #43 ) ) ;
#15 = ADVANCED_FACE ( 'NONE', ( #48 ), #107, .F. ) ;
#16 = ORIENTED_EDGE ( 'NONE', *, *, #164, .T. ) ;
#17 = ADVANCED_BREP_SHAPE_REPRESENTATION ( '960138', ( #196, #193, #122 ), #32 ) ;
#18 = PERSON_AND_ORGANIZATION ( #131, #70 ) ;
#19 = DIRECTION ( 'NONE',  ( 3.491481338843133355E-15, -1.224646799147353207E-16, 1.000000000000000000 ) ) ;
#20 = CARTESIAN_POINT ( 'NONE',  ( 2.164718430082742680E-13, 1.124819836996379248E-32, 62.00000000000000000 ) ) ;
#21 = CIRCLE ( 'NONE', #229, 1.999999999999996669 ) ;
#22 = AXIS2_PLACEMENT_3D ( 'NONE', #211, #228, #243 ) ;
#23 = DIRECTION ( 'NONE',  ( -3.491481338843133355E-15, 4.327174794786742882E-16, -1.000000000000000000 ) ) ;
#24 = DIRECTION ( 'NONE',  ( -3.491481338843133355E-15, 1.224646799147353207E-16, -1.000000000000000000 ) ) ;
#25 = CC_DESIGN_PERSON_AND_ORGANIZATION_ASSIGNMENT ( #223, #85, ( #82 ) ) ;
#26 = DIRECTION ( 'NONE',  ( -3.491481338843133355E-15, 1.224646799147353207E-16, -1.000000000000000000 ) ) ;
#27 = LOCAL_TIME ( 14, 56, 48.00000000000000000, #238 ) ;
#28 = CARTESIAN_POINT ( 'NONE',  ( 4.783329434215092066E-14, -1.050000000000008704, 13.69999999999999929 ) ) ;
#29 = CARTESIAN_POINT ( 'NONE',  ( 0.0000000000000000000, 0.0000000000000000000, 0.0000000000000000000 ) ) ;
#30 = CARTESIAN_POINT ( 'NONE',  ( 1.334335044876570493E-15, -1.050000000000002709, 0.3821687459795184427 ) ) ;
#31 = AXIS2_PLACEMENT_3D ( 'NONE', #114, #58, #77 ) ;
#32 =( GEOMETRIC_REPRESENTATION_CONTEXT ( 3 ) GLOBAL_UNCERTAINTY_ASSIGNED_CONTEXT ( ( #53 ) ) GLOBAL_UNIT_ASSIGNED_CONTEXT ( ( #233, #56, #54 ) ) REPRESENTATION_CONTEXT ( 'NONE', 'WORKASPACE' ) );
#33 = AXIS2_PLACEMENT_3D ( 'NONE', #188, #19, #231 ) ;
#34 = VERTEX_POINT ( 'NONE', #10 ) ;
#35 = COORDINATED_UNIVERSAL_TIME_OFFSET ( 1, 0, .AHEAD. ) ;
#36 = APPROVAL_STATUS ( 'not_yet_approved' ) ;
#37 = EDGE_LOOP ( 'NONE', ( #39 ) ) ;
#38 = EDGE_CURVE ( 'NONE', #156, #156, #145, .T. ) ;
#39 = ORIENTED_EDGE ( 'NONE', *, *, #174, .T. ) ;
#40 = CALENDAR_DATE ( 2021, 13, 10 ) ;
#41 = ORIENTED_EDGE ( 'NONE', *, *, #86, .F. ) ;
#42 = PERSON_AND_ORGANIZATION ( #131, #70 ) ;
#43 = ORIENTED_EDGE ( 'NONE', *, *, #100, .T. ) ;
#44 = APPROVAL_PERSON_ORGANIZATION ( #235, #178, #147 ) ;
#45 = AXIS2_PLACEMENT_3D ( 'NONE', #155, #24, #189 ) ;
#46 = CARTESIAN_POINT ( 'NONE',  ( 4.783329434215092066E-14, -5.928229468857836486E-15, 13.69999999999999929 ) ) ;
#47 = DIRECTION ( 'NONE',  ( -3.491481338843133355E-15, 1.224646799147353207E-16, -1.000000000000000000 ) ) ;
#48 = FACE_OUTER_BOUND ( 'NONE', #128, .T. ) ;
#49 = PRODUCT_DEFINITION_SHAPE ( 'NONE', 'NONE',  #57 ) ;
#50 = EDGE_LOOP ( 'NONE', ( #16 ) ) ;
#51 = DIRECTION ( 'NONE',  ( 0.0000000000000000000, 1.000000000000000000, 0.0000000000000000000 ) ) ;
#52 = CARTESIAN_POINT ( 'NONE',  ( 5.606906701983417070E-14, 1.084074173710929623, 16.05881904510252411 ) ) ;
#53 = UNCERTAINTY_MEASURE_WITH_UNIT (LENGTH_MEASURE( 1.000000000000000082E-05 ), #233, 'distance_accuracy_value', 'NONE');
#54 =( NAMED_UNIT ( * ) SI_UNIT ( $, .STERADIAN. ) SOLID_ANGLE_UNIT ( ) );
#55 = CARTESIAN_POINT ( 'NONE',  ( 2.541590561669638548E-15, -8.914699647580411499E-17, 0.7279404685324105673 ) ) ;
#56 =( NAMED_UNIT ( * ) PLANE_ANGLE_UNIT ( ) SI_UNIT ( $, .RADIAN. ) );
#57 = PRODUCT_DEFINITION ( 'UNKNOWN', '', #82, #67 ) ;
#58 = DIRECTION ( 'NONE',  ( 3.491481338843133355E-15, -4.327174794786742882E-16, 1.000000000000000000 ) ) ;
#59 = CALENDAR_DATE ( 2021, 13, 10 ) ;
#60 = COORDINATED_UNIVERSAL_TIME_OFFSET ( 1, 0, .AHEAD. ) ;
#61 = CIRCLE ( 'NONE', #12, 1.499999999999996447 ) ;
#62 = CC_DESIGN_PERSON_AND_ORGANIZATION_ASSIGNMENT ( #42, #260, ( #82 ) ) ;
#63 = CIRCLE ( 'NONE', #258, 1.050000000000002709 ) ;
#64 = DIRECTION ( 'NONE',  ( -3.491481338843133355E-15, 4.327174794786742882E-16, -1.000000000000000000 ) ) ;
#65 = FACE_OUTER_BOUND ( 'NONE', #255, .T. ) ;
#66 = ADVANCED_FACE ( 'NONE', ( #232, #212 ), #201, .T. ) ;
#67 = DESIGN_CONTEXT ( 'detailed design', #110, 'design' ) ;
#68 = PLANE ( 'NONE',  #33 ) ;
#69 = AXIS2_PLACEMENT_3D ( 'NONE', #216, #94, #163 ) ;
#70 = ORGANIZATION ( 'UNSPECIFIED', 'UNSPECIFIED', '' ) ;
#71 = DIRECTION ( 'NONE',  ( -3.491481338843133355E-15, 1.224646799147353207E-16, -1.000000000000000000 ) ) ;
#72 = DIRECTION ( 'NONE',  ( -3.491481338843133355E-15, 1.224646799147353207E-16, -1.000000000000000000 ) ) ;
#73 = CC_DESIGN_PERSON_AND_ORGANIZATION_ASSIGNMENT ( #18, #222, ( #57 ) ) ;
#74 = FACE_OUTER_BOUND ( 'NONE', #150, .T. ) ;
#75 = LOCAL_TIME ( 14, 56, 48.00000000000000000, #121 ) ;
#76 = APPROVAL ( #166, 'UNSPECIFIED' ) ;
#77 = DIRECTION ( 'NONE',  ( 0.0000000000000000000, -1.000000000000000000, 0.0000000000000000000 ) ) ;
#78 = DIRECTION ( 'NONE',  ( 0.0000000000000000000, 0.0000000000000000000, 1.000000000000000000 ) ) ;
#79 = AXIS2_PLACEMENT_3D ( 'NONE', #130, #64, #173 ) ;
#80 = DATE_AND_TIME ( #40, #208 ) ;
#81 = DATE_AND_TIME ( #124, #27 ) ;
#82 = PRODUCT_DEFINITION_FORMATION_WITH_SPECIFIED_SOURCE ( 'ANY', '', #135, .NOT_KNOWN. ) ;
#83 = PERSON_AND_ORGANIZATION ( #131, #70 ) ;
#84 = EDGE_LOOP ( 'NONE', ( #5 ) ) ;
#85 = PERSON_AND_ORGANIZATION_ROLE ( 'creator' ) ;
#86 = EDGE_CURVE ( 'NONE', #236, #236, #139, .T. ) ;
#87 = ORIENTED_EDGE ( 'NONE', *, *, #38, .T. ) ;
#88 = FACE_OUTER_BOUND ( 'NONE', #37, .T. ) ;
#89 = ORIENTED_EDGE ( 'NONE', *, *, #244, .F. ) ;
#90 = CYLINDRICAL_SURFACE ( 'NONE', #95, 1.050000000000002709 ) ;
#91 = DIRECTION ( 'NONE',  ( 1.510825004591027855E-30, 1.000000000000000000, 4.327174794786742882E-16 ) ) ;
#92 = CLOSED_SHELL ( 'NONE', ( #227, #206, #219 ) ) ;
#93 = FACE_OUTER_BOUND ( 'NONE', #84, .T. ) ;
#94 = DIRECTION ( 'NONE',  ( -3.491481338843133355E-15, 4.327174794786742882E-16, -1.000000000000000000 ) ) ;
#95 = AXIS2_PLACEMENT_3D ( 'NONE', #246, #191, #91 ) ;
#96 = PLANE ( 'NONE',  #153 ) ;
#97 = APPROVAL ( #141, 'UNSPECIFIED' ) ;
#98 = APPLICATION_PROTOCOL_DEFINITION ( 'international standard', 'config_control_design', 1994, #110 ) ;
#99 = MECHANICAL_CONTEXT ( 'NONE', #200, 'mechanical' ) ;
#100 = EDGE_CURVE ( 'NONE', #34, #34, #61, .T. ) ;
#101 = APPROVAL_DATE_TIME ( #203, #97 ) ;
#102 = ORIENTED_EDGE ( 'NONE', *, *, #165, .T. ) ;
#103 = APPROVAL_DATE_TIME ( #80, #76 ) ;
#104 = EDGE_LOOP ( 'NONE', ( #41 ) ) ;
#105 = DATE_AND_TIME ( #59, #75 ) ;
#106 = ORIENTED_EDGE ( 'NONE', *, *, #100, .F. ) ;
#107 = PLANE ( 'NONE',  #198 ) ;
#108 = FACE_OUTER_BOUND ( 'NONE', #169, .T. ) ;
#109 = DIRECTION ( 'NONE',  ( 0.0000000000000000000, 1.000000000000000000, 0.0000000000000000000 ) ) ;
#110 = APPLICATION_CONTEXT ( 'configuration controlled 3d designs of mechanical parts and assemblies' ) ;
#111 = FACE_OUTER_BOUND ( 'NONE', #104, .T. ) ;
#112 = CARTESIAN_POINT ( 'NONE',  ( 1.334335044876570887E-15, -4.680217314979753508E-17, 0.3821687459795185537 ) ) ;
#113 = PRODUCT_RELATED_PRODUCT_CATEGORY ( 'detail', '', ( #135 ) ) ;
#114 = CARTESIAN_POINT ( 'NONE',  ( 6.800393385498893692E-14, -8.428081950486798098E-15, 19.47710076477777719 ) ) ;
#115 = DIRECTION ( 'NONE',  ( -3.851859888774492726E-31, -1.000000000000000000, -1.084202172485510350E-16 ) ) ;
#116 = APPLICATION_PROTOCOL_DEFINITION ( 'international standard', 'config_control_design', 1994, #200 ) ;
#117 = CC_DESIGN_PERSON_AND_ORGANIZATION_ASSIGNMENT ( #180, #253, ( #135 ) ) ;
#118 = VERTEX_POINT ( 'NONE', #179 ) ;
#119 = VERTEX_POINT ( 'NONE', #249 ) ;
#120 = ADVANCED_FACE ( 'NONE', ( #108, #172 ), #170, .T. ) ;
#121 = COORDINATED_UNIVERSAL_TIME_OFFSET ( 1, 0, .AHEAD. ) ;
#122 = AXIS2_PLACEMENT_3D ( 'NONE', #29, #78, #215 ) ;
#123 = EDGE_LOOP ( 'NONE', ( #102 ) ) ;
#124 = CALENDAR_DATE ( 2021, 13, 10 ) ;
#125 = ORIENTED_EDGE ( 'NONE', *, *, #86, .T. ) ;
#126 = ORIENTED_EDGE ( 'NONE', *, *, #165, .F. ) ;
#127 = ADVANCED_FACE ( 'NONE', ( #65 ), #68, .F. ) ;
#128 = EDGE_LOOP ( 'NONE', ( #106 ) ) ;
#129 = EDGE_LOOP ( 'NONE', ( #146 ) ) ;
#130 = CARTESIAN_POINT ( 'NONE',  ( 0.0000000000000000000, 0.0000000000000000000, 0.0000000000000000000 ) ) ;
#131 = PERSON ( 'UNSPECIFIED', 'UNSPECIFIED', 'UNSPECIFIED', ('UNSPECIFIED'), ('UNSPECIFIED'), ('UNSPECIFIED') ) ;
#132 = DIRECTION ( 'NONE',  ( 0.0000000000000000000, -1.000000000000000000, 0.0000000000000000000 ) ) ;
#133 = AXIS2_PLACEMENT_3D ( 'NONE', #152, #23, #109 ) ;
#134 = DIRECTION ( 'NONE',  ( 0.0000000000000000000, 1.000000000000000000, 0.0000000000000000000 ) ) ;
#135 = PRODUCT ( '960138', '960138', '', ( #99 ) ) ;
#136 = DIRECTION ( 'NONE',  ( 0.0000000000000000000, -1.000000000000000000, 0.0000000000000000000 ) ) ;
#137 = DIRECTION ( 'NONE',  ( 4.275831445896958607E-31, 1.000000000000000000, 1.224646799147353207E-16 ) ) ;
#138 = CIRCLE ( 'NONE', #31, 1.999999999999994005 ) ;
#139 = CIRCLE ( 'NONE', #182, 1.050000000000002709 ) ;
#140 = ADVANCED_FACE ( 'NONE', ( #93, #171 ), #262, .T. ) ;
#141 = APPROVAL_STATUS ( 'not_yet_approved' ) ;
#142 = CALENDAR_DATE ( 2021, 13, 10 ) ;
#143 = APPROVAL_ROLE ( '' ) ;
#144 = LOCAL_TIME ( 14, 56, 48.00000000000000000, #239 ) ;
#145 = CIRCLE ( 'NONE', #237, 1.050000000000002709 ) ;
#146 = ORIENTED_EDGE ( 'NONE', *, *, #164, .F. ) ;
#147 = APPROVAL_ROLE ( '' ) ;
#148 = CC_DESIGN_DATE_AND_TIME_ASSIGNMENT ( #254, #11, ( #251 ) ) ;
#149 = EDGE_LOOP ( 'NONE', ( #89 ) ) ;
#150 = EDGE_LOOP ( 'NONE', ( #126 ) ) ;
#151 = EDGE_LOOP ( 'NONE', ( #240 ) ) ;
#152 = CARTESIAN_POINT ( 'NONE',  ( 5.516540515372150701E-14, -6.836936175763054227E-15, 15.80000000000000071 ) ) ;
#153 = AXIS2_PLACEMENT_3D ( 'NONE', #214, #177, #195 ) ;
#154 = DIRECTION ( 'NONE',  ( 0.0000000000000000000, 1.000000000000000000, 0.0000000000000000000 ) ) ;
#155 = CARTESIAN_POINT ( 'NONE',  ( 0.0000000000000000000, 0.0000000000000000000, 0.0000000000000000000 ) ) ;
#156 = VERTEX_POINT ( 'NONE', #28 ) ;
#157 = CIRCLE ( 'NONE', #133, 1.050000000000005151 ) ;
#158 = ADVANCED_FACE ( 'NONE', ( #88, #176 ), #1, .T. ) ;
#159 = APPROVAL_PERSON_ORGANIZATION ( #184, #76, #187 ) ;
#160 = VERTEX_POINT ( 'NONE', #181 ) ;
#161 = DIRECTION ( 'NONE',  ( 3.491481338843133355E-15, -1.224646799147353207E-16, 1.000000000000000000 ) ) ;
#162 = AXIS2_PLACEMENT_3D ( 'NONE', #55, #161, #115 ) ;
#163 = DIRECTION ( 'NONE',  ( 3.531472815095665169E-30, 1.000000000000000000, 4.327174794786742882E-16 ) ) ;
#164 = EDGE_CURVE ( 'NONE', #9, #9, #194, .T. ) ;
#165 = EDGE_CURVE ( 'NONE', #118, #118, #63, .T. ) ;
#166 = APPROVAL_STATUS ( 'not_yet_approved' ) ;
#167 = LOCAL_TIME ( 14, 56, 48.00000000000000000, #35 ) ;
#168 = ORIENTED_EDGE ( 'NONE', *, *, #38, .F. ) ;
#169 = EDGE_LOOP ( 'NONE', ( #205 ) ) ;
#170 = CONICAL_SURFACE ( 'NONE', #4, 1.499999999999996447, 0.7853981633974480570 ) ;
#171 = FACE_OUTER_BOUND ( 'NONE', #241, .T. ) ;
#172 = FACE_BOUND ( 'NONE', #14, .T. ) ;
#173 = DIRECTION ( 'NONE',  ( 1.510825004591027855E-30, 1.000000000000000000, 4.327174794786742882E-16 ) ) ;
#174 = EDGE_CURVE ( 'NONE', #119, #119, #157, .T. ) ;
#175 = DIRECTION ( 'NONE',  ( -3.668437989309011143E-31, -1.000000000000000000, -1.032573497605239636E-16 ) ) ;
#176 = FACE_OUTER_BOUND ( 'NONE', #185, .T. ) ;
#177 = DIRECTION ( 'NONE',  ( 3.491481338843133355E-15, -1.224646799147353207E-16, 1.000000000000000000 ) ) ;
#178 = APPROVAL ( #36, 'UNSPECIFIED' ) ;
#179 = CARTESIAN_POINT ( 'NONE',  ( 4.783329434215092066E-14, -1.050000000000008704, 13.69999999999999929 ) ) ;
#180 = PERSON_AND_ORGANIZATION ( #131, #70 ) ;
#181 = CARTESIAN_POINT ( 'NONE',  ( 6.800393385498893692E-14, -2.000000000000002220, 19.47710076477777719 ) ) ;
#182 = AXIS2_PLACEMENT_3D ( 'NONE', #112, #226, #175 ) ;
#183 = CC_DESIGN_APPROVAL ( #178, ( #57 ) ) ;
#184 = PERSON_AND_ORGANIZATION ( #131, #70 ) ;
#185 = EDGE_LOOP ( 'NONE', ( #168 ) ) ;
#186 = TOROIDAL_SURFACE ( 'NONE', #69, 2.050000000000005151, 1.000000000000000444 ) ;
#187 = APPROVAL_ROLE ( '' ) ;
#188 = CARTESIAN_POINT ( 'NONE',  ( 4.783329434215092066E-14, 1.499759782661848029E-32, 13.69999999999999929 ) ) ;
#189 = DIRECTION ( 'NONE',  ( 4.275831445896959482E-31, 1.000000000000000000, 1.224646799147353207E-16 ) ) ;
#190 = FACE_OUTER_BOUND ( 'NONE', #123, .T. ) ;
#191 = DIRECTION ( 'NONE',  ( -3.491481338843133355E-15, 4.327174794786742882E-16, -1.000000000000000000 ) ) ;
#192 = CARTESIAN_POINT ( 'NONE',  ( 2.164718430082742680E-13, -7.592810154713590230E-15, 62.00000000000000000 ) ) ;
#193 = MANIFOLD_SOLID_BREP ( 'Corps-Déplacer/Copier1[2]', #92 ) ;
#194 = CIRCLE ( 'NONE', #224, 1.084074173710936728 ) ;
#195 = DIRECTION ( 'NONE',  ( -4.275831445896958607E-31, -1.000000000000000000, -1.224646799147353207E-16 ) ) ;
#196 = MANIFOLD_SOLID_BREP ( 'Corps-Déplacer/Copier1[1]', #242 ) ;
#197 = CC_DESIGN_APPROVAL ( #97, ( #251 ) ) ;
#198 = AXIS2_PLACEMENT_3D ( 'NONE', #20, #245, #137 ) ;
#199 = FACE_OUTER_BOUND ( 'NONE', #257, .T. ) ;
#200 = APPLICATION_CONTEXT ( 'configuration controlled 3d designs of mechanical parts and assemblies' ) ;
#201 = CONICAL_SURFACE ( 'NONE', #22, 2.500000000000002665, 0.2617993877991504625 ) ;
#202 = PERSON_AND_ORGANIZATION ( #131, #70 ) ;
#203 = DATE_AND_TIME ( #142, #167 ) ;
#204 = CALENDAR_DATE ( 2021, 13, 10 ) ;
#205 = ORIENTED_EDGE ( 'NONE', *, *, #209, .F. ) ;
#206 = ADVANCED_FACE ( 'NONE', ( #190, #111 ), #90, .T. ) ;
#207 = DIRECTION ( 'NONE',  ( -3.491481338843133355E-15, 4.327174794786742882E-16, -1.000000000000000000 ) ) ;
#208 = LOCAL_TIME ( 14, 56, 48.00000000000000000, #60 ) ;
#209 = EDGE_CURVE ( 'NONE', #252, #252, #21, .T. ) ;
#210 = DIRECTION ( 'NONE',  ( -3.491481338843133355E-15, 1.224646799147353207E-16, -1.000000000000000000 ) ) ;
#211 = CARTESIAN_POINT ( 'NONE',  ( 7.451912673010961246E-14, -9.235543759855587474E-15, 21.34312616856223954 ) ) ;
#212 = FACE_OUTER_BOUND ( 'NONE', #149, .T. ) ;
#213 = FACE_OUTER_BOUND ( 'NONE', #151, .T. ) ;
#214 = CARTESIAN_POINT ( 'NONE',  ( 4.783329434215092066E-14, 1.499759782661848029E-32, 13.69999999999999929 ) ) ;
#215 = DIRECTION ( 'NONE',  ( 1.000000000000000000, 0.0000000000000000000, 0.0000000000000000000 ) ) ;
#216 = CARTESIAN_POINT ( 'NONE',  ( 5.516540515372150701E-14, -6.938893903907228378E-15, 15.80000000000000071 ) ) ;
#217 = DIRECTION ( 'NONE',  ( 0.0000000000000000000, 1.000000000000000000, 0.0000000000000000000 ) ) ;
#218 = APPROVAL_DATE_TIME ( #81, #178 ) ;
#219 = ADVANCED_FACE ( 'NONE', ( #74 ), #96, .T. ) ;
#220 = DATE_TIME_ROLE ( 'creation_date' ) ;
#221 = CC_DESIGN_APPROVAL ( #76, ( #82 ) ) ;
#222 = PERSON_AND_ORGANIZATION_ROLE ( 'creator' ) ;
#223 = PERSON_AND_ORGANIZATION ( #131, #70 ) ;
#224 = AXIS2_PLACEMENT_3D ( 'NONE', #248, #207, #134 ) ;
#225 = CC_DESIGN_SECURITY_CLASSIFICATION ( #251, ( #82 ) ) ;
#226 = DIRECTION ( 'NONE',  ( -3.491481338843133355E-15, 1.224646799147353207E-16, -1.000000000000000000 ) ) ;
#227 = ADVANCED_FACE ( 'NONE', ( #199 ), #3, .T. ) ;
#228 = DIRECTION ( 'NONE',  ( 3.491481338843133355E-15, -4.327174794786742882E-16, 1.000000000000000000 ) ) ;
#229 = AXIS2_PLACEMENT_3D ( 'NONE', #247, #71, #217 ) ;
#230 = CARTESIAN_POINT ( 'NONE',  ( 2.164718430082742680E-13, -7.592810154713590230E-15, 62.00000000000000000 ) ) ;
#231 = DIRECTION ( 'NONE',  ( -4.275831445896958607E-31, -1.000000000000000000, -1.224646799147353207E-16 ) ) ;
#232 = FACE_BOUND ( 'NONE', #129, .T. ) ;
#233 =( LENGTH_UNIT ( ) NAMED_UNIT ( * ) SI_UNIT ( .MILLI., .METRE. ) );
#234 = CC_DESIGN_PERSON_AND_ORGANIZATION_ASSIGNMENT ( #202, #13, ( #251 ) ) ;
#235 = PERSON_AND_ORGANIZATION ( #131, #70 ) ;
#236 = VERTEX_POINT ( 'NONE', #30 ) ;
#237 = AXIS2_PLACEMENT_3D ( 'NONE', #46, #210, #136 ) ;
#238 = COORDINATED_UNIVERSAL_TIME_OFFSET ( 1, 0, .AHEAD. ) ;
#239 = COORDINATED_UNIVERSAL_TIME_OFFSET ( 1, 0, .AHEAD. ) ;
#240 = ORIENTED_EDGE ( 'NONE', *, *, #174, .F. ) ;
#241 = EDGE_LOOP ( 'NONE', ( #2 ) ) ;
#242 = CLOSED_SHELL ( 'NONE', ( #140, #120, #15, #158, #66, #261, #127 ) ) ;
#243 = DIRECTION ( 'NONE',  ( 0.0000000000000000000, -1.000000000000000000, 0.0000000000000000000 ) ) ;
#244 = EDGE_CURVE ( 'NONE', #160, #160, #138, .T. ) ;
#245 = DIRECTION ( 'NONE',  ( -3.491481338843133355E-15, 1.224646799147353207E-16, -1.000000000000000000 ) ) ;
#246 = CARTESIAN_POINT ( 'NONE',  ( 0.0000000000000000000, 0.0000000000000000000, 0.0000000000000000000 ) ) ;
#247 = CARTESIAN_POINT ( 'NONE',  ( 2.147261023388527077E-13, -7.531577814756222656E-15, 61.50000000000000000 ) ) ;
#248 = CARTESIAN_POINT ( 'NONE',  ( 5.606906701983417070E-14, -6.948931700600894661E-15, 16.05881904510252411 ) ) ;
#249 = CARTESIAN_POINT ( 'NONE',  ( 5.516540515372150701E-14, 1.049999999999998268, 15.80000000000000071 ) ) ;
#250 = CARTESIAN_POINT ( 'NONE',  ( 2.147261023388527077E-13, 1.999999999999989120, 61.50000000000000000 ) ) ;
#251 = SECURITY_CLASSIFICATION ( '', '', #256 ) ;
#252 = VERTEX_POINT ( 'NONE', #250 ) ;
#253 = PERSON_AND_ORGANIZATION_ROLE ( 'design_owner' ) ;
#254 = DATE_AND_TIME ( #204, #144 ) ;
#255 = EDGE_LOOP ( 'NONE', ( #87 ) ) ;
#256 = SECURITY_CLASSIFICATION_LEVEL ( 'unclassified' ) ;
#257 = EDGE_LOOP ( 'NONE', ( #125 ) ) ;
#258 = AXIS2_PLACEMENT_3D ( 'NONE', #263, #47, #132 ) ;
#259 = SHAPE_DEFINITION_REPRESENTATION ( #49, #17 ) ;
#260 = PERSON_AND_ORGANIZATION_ROLE ( 'design_supplier' ) ;
#261 = ADVANCED_FACE ( 'NONE', ( #213, #6 ), #186, .F. ) ;
#262 = CYLINDRICAL_SURFACE ( 'NONE', #45, 1.999999999999994005 ) ;
#263 = CARTESIAN_POINT ( 'NONE',  ( 4.783329434215092066E-14, -5.928229468857836486E-15, 13.69999999999999929 ) ) ;
ENDSEC;
END-ISO-10303-21;
