ISO-10303-21;
HEADER;
FILE_DESCRIPTION (( 'STEP AP203' ),
    '1' );
FILE_NAME ('960137.step',
    '2021-10-13T12:56:47',
    ( '' ),
    ( '' ),
    'SwSTEP 2.0',
    'SolidWorks 2019',
    '' );
FILE_SCHEMA (( 'CONFIG_CONTROL_DESIGN' ));
ENDSEC;

DATA;
#1 = DATE_AND_TIME ( #127, #234 ) ;
#2 = PERSON_AND_ORGANIZATION ( #117, #131 ) ;
#3 = EDGE_LOOP ( 'NONE', ( #150 ) ) ;
#4 = CONICAL_SURFACE ( 'NONE', #55, 1.499999999999996447, 0.7853981633974480570 ) ;
#5 = EDGE_CURVE ( 'NONE', #116, #116, #11, .T. ) ;
#6 = CALENDAR_DATE ( 2021, 13, 10 ) ;
#7 = APPLICATION_CONTEXT ( 'configuration controlled 3d designs of mechanical parts and assemblies' ) ;
#8 = MANIFOLD_SOLID_BREP ( 'Corps-Déplacer/Copier1[1]', #16 ) ;
#9 = ADVANCED_FACE ( 'NONE', ( #176 ), #199, .F. ) ;
#10 = FACE_OUTER_BOUND ( 'NONE', #86, .T. ) ;
#11 = CIRCLE ( 'NONE', #242, 1.034074173710935574 ) ;
#12 = FACE_OUTER_BOUND ( 'NONE', #58, .T. ) ;
#13 = DIRECTION ( 'NONE',  ( 3.491481338843133355E-15, -1.224646799147353207E-16, 1.000000000000000000 ) ) ;
#14 = CARTESIAN_POINT ( 'NONE',  ( 2.541590561669638548E-15, -8.914699647580411499E-17, 0.7279404685324105673 ) ) ;
#15 = ADVANCED_FACE ( 'NONE', ( #138, #10 ), #42, .T. ) ;
#16 = CLOSED_SHELL ( 'NONE', ( #106, #69, #65, #224, #15, #27, #9 ) ) ;
#17 = AXIS2_PLACEMENT_3D ( 'NONE', #216, #239, #236 ) ;
#18 = CIRCLE ( 'NONE', #254, 1.000000000000002442 ) ;
#19 = DIRECTION ( 'NONE',  ( -3.491481338843133355E-15, 1.224646799147353207E-16, -1.000000000000000000 ) ) ;
#20 = VERTEX_POINT ( 'NONE', #97 ) ;
#21 = DIRECTION ( 'NONE',  ( 1.000000000000000000, 0.0000000000000000000, 0.0000000000000000000 ) ) ;
#22 = DIRECTION ( 'NONE',  ( 0.0000000000000000000, -1.000000000000000000, 0.0000000000000000000 ) ) ;
#23 = APPROVAL_DATE_TIME ( #186, #240 ) ;
#24 = LOCAL_TIME ( 14, 56, 47.00000000000000000, #222 ) ;
#25 = CALENDAR_DATE ( 2021, 13, 10 ) ;
#26 = ORIENTED_EDGE ( 'NONE', *, *, #5, .T. ) ;
#27 = ADVANCED_FACE ( 'NONE', ( #210, #108 ), #226, .F. ) ;
#28 = APPROVAL_ROLE ( '' ) ;
#29 = DIRECTION ( 'NONE',  ( -3.491481338843133355E-15, 1.224646799147353207E-16, -1.000000000000000000 ) ) ;
#30 = LOCAL_TIME ( 14, 56, 47.00000000000000000, #188 ) ;
#31 = FACE_OUTER_BOUND ( 'NONE', #45, .T. ) ;
#32 = DIRECTION ( 'NONE',  ( 0.0000000000000000000, 1.000000000000000000, 0.0000000000000000000 ) ) ;
#33 = CIRCLE ( 'NONE', #17, 1.499999999999996447 ) ;
#34 = DIRECTION ( 'NONE',  ( 1.510825004591027855E-30, 1.000000000000000000, 4.327174794786742882E-16 ) ) ;
#35 = EDGE_CURVE ( 'NONE', #79, #79, #109, .T. ) ;
#36 = CONICAL_SURFACE ( 'NONE', #151, 1.999999999999989120, 1.221730476396026388 ) ;
#37 = VERTEX_POINT ( 'NONE', #201 ) ;
#38 = ADVANCED_BREP_SHAPE_REPRESENTATION ( '960137', ( #8, #93, #129 ), #110 ) ;
#39 = APPROVAL_STATUS ( 'not_yet_approved' ) ;
#40 = ORIENTED_EDGE ( 'NONE', *, *, #35, .F. ) ;
#41 = APPROVAL_STATUS ( 'not_yet_approved' ) ;
#42 = CONICAL_SURFACE ( 'NONE', #75, 2.500000000000002665, 0.2617993877991502960 ) ;
#43 = CC_DESIGN_APPROVAL ( #200, ( #46 ) ) ;
#44 = EDGE_LOOP ( 'NONE', ( #83 ) ) ;
#45 = EDGE_LOOP ( 'NONE', ( #101 ) ) ;
#46 = SECURITY_CLASSIFICATION ( '', '', #169 ) ;
#47 = CARTESIAN_POINT ( 'NONE',  ( 6.586226807142648769E-14, -8.162654147840738078E-15, 18.86370330515622129 ) ) ;
#48 = DIRECTION ( 'NONE',  ( 0.0000000000000000000, -1.000000000000000000, 0.0000000000000000000 ) ) ;
#49 = FACE_OUTER_BOUND ( 'NONE', #105, .T. ) ;
#50 = EDGE_CURVE ( 'NONE', #37, #37, #232, .T. ) ;
#51 = DIRECTION ( 'NONE',  ( -3.491481338843133355E-15, 4.327174794786742882E-16, -1.000000000000000000 ) ) ;
#52 = CARTESIAN_POINT ( 'NONE',  ( 2.164718430082742680E-13, 1.124819836996379248E-32, 62.00000000000000000 ) ) ;
#53 = VERTEX_POINT ( 'NONE', #121 ) ;
#54 = CYLINDRICAL_SURFACE ( 'NONE', #72, 1.000000000000002442 ) ;
#55 = AXIS2_PLACEMENT_3D ( 'NONE', #233, #136, #211 ) ;
#56 = FACE_OUTER_BOUND ( 'NONE', #66, .T. ) ;
#57 = ADVANCED_FACE ( 'NONE', ( #12 ), #67, .T. ) ;
#58 = EDGE_LOOP ( 'NONE', ( #62 ) ) ;
#59 = CALENDAR_DATE ( 2021, 13, 10 ) ;
#60 = PRODUCT_RELATED_PRODUCT_CATEGORY ( 'detail', '', ( #147 ) ) ;
#61 = AXIS2_PLACEMENT_3D ( 'NONE', #175, #29, #48 ) ;
#62 = ORIENTED_EDGE ( 'NONE', *, *, #159, .F. ) ;
#63 = APPROVAL_PERSON_ORGANIZATION ( #128, #240, #28 ) ;
#64 = ORIENTED_EDGE ( 'NONE', *, *, #120, .F. ) ;
#65 = ADVANCED_FACE ( 'NONE', ( #89 ), #70, .F. ) ;
#66 = EDGE_LOOP ( 'NONE', ( #170 ) ) ;
#67 = PLANE ( 'NONE',  #80 ) ;
#68 = DIRECTION ( 'NONE',  ( -4.275831445896958607E-31, -1.000000000000000000, -1.224646799147353207E-16 ) ) ;
#69 = ADVANCED_FACE ( 'NONE', ( #49, #249 ), #4, .T. ) ;
#70 = PLANE ( 'NONE',  #71 ) ;
#71 = AXIS2_PLACEMENT_3D ( 'NONE', #52, #177, #111 ) ;
#72 = AXIS2_PLACEMENT_3D ( 'NONE', #95, #255, #163 ) ;
#73 = CARTESIAN_POINT ( 'NONE',  ( 7.237746094654716324E-14, -8.970115957209525877E-15, 20.72972870894068720 ) ) ;
#74 = CARTESIAN_POINT ( 'NONE',  ( 4.538925740496072731E-14, -1.000000000000007994, 12.99999999999999822 ) ) ;
#75 = AXIS2_PLACEMENT_3D ( 'NONE', #73, #250, #134 ) ;
#76 =( NAMED_UNIT ( * ) SI_UNIT ( $, .STERADIAN. ) SOLID_ANGLE_UNIT ( ) );
#77 = DIRECTION ( 'NONE',  ( -3.491481338843133355E-15, 1.224646799147353207E-16, -1.000000000000000000 ) ) ;
#78 = CC_DESIGN_PERSON_AND_ORGANIZATION_ASSIGNMENT ( #227, #100, ( #171 ) ) ;
#79 = VERTEX_POINT ( 'NONE', #221 ) ;
#80 = AXIS2_PLACEMENT_3D ( 'NONE', #198, #153, #68 ) ;
#81 = APPROVAL_ROLE ( '' ) ;
#82 = APPROVAL_DATE_TIME ( #1, #200 ) ;
#83 = ORIENTED_EDGE ( 'NONE', *, *, #113, .T. ) ;
#84 = CC_DESIGN_APPROVAL ( #179, ( #174 ) ) ;
#85 = CALENDAR_DATE ( 2021, 13, 10 ) ;
#86 = EDGE_LOOP ( 'NONE', ( #64 ) ) ;
#87 = CARTESIAN_POINT ( 'NONE',  ( 5.237222008264700033E-14, -6.505213034913026604E-15, 15.00000000000000000 ) ) ;
#88 = CLOSED_SHELL ( 'NONE', ( #91, #197, #57 ) ) ;
#89 = FACE_OUTER_BOUND ( 'NONE', #124, .T. ) ;
#90 = FACE_OUTER_BOUND ( 'NONE', #3, .T. ) ;
#91 = ADVANCED_FACE ( 'NONE', ( #31 ), #36, .T. ) ;
#92 =( LENGTH_UNIT ( ) NAMED_UNIT ( * ) SI_UNIT ( .MILLI., .METRE. ) );
#93 = MANIFOLD_SOLID_BREP ( 'Corps-Déplacer/Copier1[2]', #88 ) ;
#94 = CARTESIAN_POINT ( 'NONE',  ( 1.270795280834829135E-15, -4.457349823790240878E-17, 0.3639702342662080592 ) ) ;
#95 = CARTESIAN_POINT ( 'NONE',  ( 0.0000000000000000000, 0.0000000000000000000, 0.0000000000000000000 ) ) ;
#96 = AXIS2_PLACEMENT_3D ( 'NONE', #141, #237, #34 ) ;
#97 = CARTESIAN_POINT ( 'NONE',  ( 5.237222008264700033E-14, 0.9999999999999983347, 15.00000000000000000 ) ) ;
#98 = DATE_AND_TIME ( #6, #24 ) ;
#99 = EDGE_LOOP ( 'NONE', ( #126 ) ) ;
#100 = PERSON_AND_ORGANIZATION_ROLE ( 'design_supplier' ) ;
#101 = ORIENTED_EDGE ( 'NONE', *, *, #215, .T. ) ;
#102 = PERSON_AND_ORGANIZATION ( #117, #131 ) ;
#103 = COORDINATED_UNIVERSAL_TIME_OFFSET ( 1, 0, .AHEAD. ) ;
#104 = AXIS2_PLACEMENT_3D ( 'NONE', #47, #238, #258 ) ;
#105 = EDGE_LOOP ( 'NONE', ( #40 ) ) ;
#106 = ADVANCED_FACE ( 'NONE', ( #90, #253 ), #178, .T. ) ;
#107 = CC_DESIGN_DATE_AND_TIME_ASSIGNMENT ( #225, #149, ( #46 ) ) ;
#108 = FACE_OUTER_BOUND ( 'NONE', #189, .T. ) ;
#109 = CIRCLE ( 'NONE', #257, 1.999999999999996669 ) ;
#110 =( GEOMETRIC_REPRESENTATION_CONTEXT ( 3 ) GLOBAL_UNCERTAINTY_ASSIGNED_CONTEXT ( ( #209 ) ) GLOBAL_UNIT_ASSIGNED_CONTEXT ( ( #92, #182, #76 ) ) REPRESENTATION_CONTEXT ( 'NONE', 'WORKASPACE' ) );
#111 = DIRECTION ( 'NONE',  ( 4.275831445896958607E-31, 1.000000000000000000, 1.224646799147353207E-16 ) ) ;
#112 = ORIENTED_EDGE ( 'NONE', *, *, #162, .F. ) ;
#113 = EDGE_CURVE ( 'NONE', #20, #20, #155, .T. ) ;
#114 = DIRECTION ( 'NONE',  ( -4.275831445896958607E-31, -1.000000000000000000, -1.224646799147353207E-16 ) ) ;
#115 = AXIS2_PLACEMENT_3D ( 'NONE', #87, #208, #152 ) ;
#116 = VERTEX_POINT ( 'NONE', #261 ) ;
#117 = PERSON ( 'UNSPECIFIED', 'UNSPECIFIED', 'UNSPECIFIED', ('UNSPECIFIED'), ('UNSPECIFIED'), ('UNSPECIFIED') ) ;
#118 = DIRECTION ( 'NONE',  ( -3.851859888774462510E-31, -1.000000000000000000, -1.084202172485501846E-16 ) ) ;
#119 = CARTESIAN_POINT ( 'NONE',  ( 0.0000000000000000000, 0.0000000000000000000, 0.0000000000000000000 ) ) ;
#120 = EDGE_CURVE ( 'NONE', #53, #53, #191, .T. ) ;
#121 = CARTESIAN_POINT ( 'NONE',  ( 6.586226807142648769E-14, -2.000000000000002220, 18.86370330515622129 ) ) ;
#122 = CC_DESIGN_DATE_AND_TIME_ASSIGNMENT ( #172, #246, ( #174 ) ) ;
#123 = APPROVAL_DATE_TIME ( #98, #179 ) ;
#124 = EDGE_LOOP ( 'NONE', ( #112 ) ) ;
#125 = APPROVAL_ROLE ( '' ) ;
#126 = ORIENTED_EDGE ( 'NONE', *, *, #215, .F. ) ;
#127 = CALENDAR_DATE ( 2021, 13, 10 ) ;
#128 = PERSON_AND_ORGANIZATION ( #117, #131 ) ;
#129 = AXIS2_PLACEMENT_3D ( 'NONE', #119, #203, #21 ) ;
#130 = EDGE_LOOP ( 'NONE', ( #193 ) ) ;
#131 = ORGANIZATION ( 'UNSPECIFIED', 'UNSPECIFIED', '' ) ;
#132 = DIRECTION ( 'NONE',  ( 0.0000000000000000000, 1.000000000000000000, 0.0000000000000000000 ) ) ;
#133 = CC_DESIGN_PERSON_AND_ORGANIZATION_ASSIGNMENT ( #165, #146, ( #46 ) ) ;
#134 = DIRECTION ( 'NONE',  ( 0.0000000000000000000, -1.000000000000000000, 0.0000000000000000000 ) ) ;
#135 = DESIGN_CONTEXT ( 'detailed design', #7, 'design' ) ;
#136 = DIRECTION ( 'NONE',  ( -3.491481338843133355E-15, 1.224646799147353207E-16, -1.000000000000000000 ) ) ;
#137 = AXIS2_PLACEMENT_3D ( 'NONE', #158, #77, #22 ) ;
#138 = FACE_BOUND ( 'NONE', #247, .T. ) ;
#139 = CARTESIAN_POINT ( 'NONE',  ( 5.237222008264700033E-14, -6.490762192180113534E-15, 15.00000000000000000 ) ) ;
#140 = FACE_OUTER_BOUND ( 'NONE', #44, .T. ) ;
#141 = CARTESIAN_POINT ( 'NONE',  ( 0.0000000000000000000, 0.0000000000000000000, 0.0000000000000000000 ) ) ;
#142 = CC_DESIGN_PERSON_AND_ORGANIZATION_ASSIGNMENT ( #157, #262, ( #147 ) ) ;
#143 = CIRCLE ( 'NONE', #137, 1.000000000000002442 ) ;
#144 = FACE_OUTER_BOUND ( 'NONE', #130, .T. ) ;
#145 = COORDINATED_UNIVERSAL_TIME_OFFSET ( 1, 0, .AHEAD. ) ;
#146 = PERSON_AND_ORGANIZATION_ROLE ( 'classification_officer' ) ;
#147 = PRODUCT ( '960137', '960137', '', ( #161 ) ) ;
#148 = ORIENTED_EDGE ( 'NONE', *, *, #113, .F. ) ;
#149 = DATE_TIME_ROLE ( 'classification_date' ) ;
#150 = ORIENTED_EDGE ( 'NONE', *, *, #120, .T. ) ;
#151 = AXIS2_PLACEMENT_3D ( 'NONE', #14, #13, #180 ) ;
#152 = DIRECTION ( 'NONE',  ( 1.546232063795373926E-30, 1.000000000000000000, 4.327174794786743375E-16 ) ) ;
#153 = DIRECTION ( 'NONE',  ( 3.491481338843133355E-15, -1.224646799147353207E-16, 1.000000000000000000 ) ) ;
#154 = DIRECTION ( 'NONE',  ( 4.275831445896959482E-31, 1.000000000000000000, 1.224646799147353207E-16 ) ) ;
#155 = CIRCLE ( 'NONE', #217, 1.000000000000004885 ) ;
#156 = CARTESIAN_POINT ( 'NONE',  ( 5.327588194875964509E-14, -6.602757717017953968E-15, 15.25881904510251807 ) ) ;
#157 = PERSON_AND_ORGANIZATION ( #117, #131 ) ;
#158 = CARTESIAN_POINT ( 'NONE',  ( 4.538925740496072731E-14, -5.625327233222764958E-15, 12.99999999999999822 ) ) ;
#159 = EDGE_CURVE ( 'NONE', #204, #204, #143, .T. ) ;
#160 = CYLINDRICAL_SURFACE ( 'NONE', #96, 1.000000000000002442 ) ;
#161 = MECHANICAL_CONTEXT ( 'NONE', #248, 'mechanical' ) ;
#162 = EDGE_CURVE ( 'NONE', #202, #202, #33, .T. ) ;
#163 = DIRECTION ( 'NONE',  ( 1.510825004591027855E-30, 1.000000000000000000, 4.327174794786742882E-16 ) ) ;
#164 = APPROVAL_PERSON_ORGANIZATION ( #2, #179, #81 ) ;
#165 = PERSON_AND_ORGANIZATION ( #117, #131 ) ;
#166 = PERSON_AND_ORGANIZATION_ROLE ( 'creator' ) ;
#167 = SHAPE_DEFINITION_REPRESENTATION ( #190, #38 ) ;
#168 = AXIS2_PLACEMENT_3D ( 'NONE', #214, #230, #114 ) ;
#169 = SECURITY_CLASSIFICATION_LEVEL ( 'unclassified' ) ;
#170 = ORIENTED_EDGE ( 'NONE', *, *, #159, .T. ) ;
#171 = PRODUCT_DEFINITION_FORMATION_WITH_SPECIFIED_SOURCE ( 'ANY', '', #147, .NOT_KNOWN. ) ;
#172 = DATE_AND_TIME ( #85, #212 ) ;
#173 = ORIENTED_EDGE ( 'NONE', *, *, #162, .T. ) ;
#174 = PRODUCT_DEFINITION ( 'UNKNOWN', '', #171, #135 ) ;
#175 = CARTESIAN_POINT ( 'NONE',  ( 4.538925740496072731E-14, -5.625327233222764958E-15, 12.99999999999999822 ) ) ;
#176 = FACE_OUTER_BOUND ( 'NONE', #244, .T. ) ;
#177 = DIRECTION ( 'NONE',  ( -3.491481338843133355E-15, 1.224646799147353207E-16, -1.000000000000000000 ) ) ;
#178 = CYLINDRICAL_SURFACE ( 'NONE', #219, 1.999999999999994005 ) ;
#179 = APPROVAL ( #39, 'UNSPECIFIED' ) ;
#180 = DIRECTION ( 'NONE',  ( -3.851859888774492726E-31, -1.000000000000000000, -1.084202172485510350E-16 ) ) ;
#181 = CC_DESIGN_SECURITY_CLASSIFICATION ( #46, ( #171 ) ) ;
#182 =( NAMED_UNIT ( * ) PLANE_ANGLE_UNIT ( ) SI_UNIT ( $, .RADIAN. ) );
#183 = CARTESIAN_POINT ( 'NONE',  ( 2.164718430082742680E-13, 1.499999999999988676, 62.00000000000000000 ) ) ;
#184 = FACE_OUTER_BOUND ( 'NONE', #99, .T. ) ;
#185 = CARTESIAN_POINT ( 'NONE',  ( 1.270795280834828740E-15, -1.000000000000002442, 0.3639702342662079482 ) ) ;
#186 = DATE_AND_TIME ( #25, #30 ) ;
#187 = APPROVAL_STATUS ( 'not_yet_approved' ) ;
#188 = COORDINATED_UNIVERSAL_TIME_OFFSET ( 1, 0, .AHEAD. ) ;
#189 = EDGE_LOOP ( 'NONE', ( #26 ) ) ;
#190 = PRODUCT_DEFINITION_SHAPE ( 'NONE', 'NONE',  #174 ) ;
#191 = CIRCLE ( 'NONE', #104, 1.999999999999994005 ) ;
#192 = PERSON_AND_ORGANIZATION_ROLE ( 'creator' ) ;
#193 = ORIENTED_EDGE ( 'NONE', *, *, #50, .F. ) ;
#194 = ORIENTED_EDGE ( 'NONE', *, *, #50, .T. ) ;
#195 = EDGE_LOOP ( 'NONE', ( #173 ) ) ;
#196 = CARTESIAN_POINT ( 'NONE',  ( 2.147261023388527077E-13, -7.531577814756222656E-15, 61.50000000000000000 ) ) ;
#197 = ADVANCED_FACE ( 'NONE', ( #56, #184 ), #160, .T. ) ;
#198 = CARTESIAN_POINT ( 'NONE',  ( 4.538925740496072731E-14, 1.499759782661848029E-32, 12.99999999999999822 ) ) ;
#199 = PLANE ( 'NONE',  #168 ) ;
#200 = APPROVAL ( #41, 'UNSPECIFIED' ) ;
#201 = CARTESIAN_POINT ( 'NONE',  ( 4.538925740496072731E-14, -1.000000000000007994, 12.99999999999999822 ) ) ;
#202 = VERTEX_POINT ( 'NONE', #183 ) ;
#203 = DIRECTION ( 'NONE',  ( 0.0000000000000000000, 0.0000000000000000000, 1.000000000000000000 ) ) ;
#204 = VERTEX_POINT ( 'NONE', #74 ) ;
#205 = PERSON_AND_ORGANIZATION ( #117, #131 ) ;
#206 = CC_DESIGN_PERSON_AND_ORGANIZATION_ASSIGNMENT ( #241, #166, ( #171 ) ) ;
#207 = COORDINATED_UNIVERSAL_TIME_OFFSET ( 1, 0, .AHEAD. ) ;
#208 = DIRECTION ( 'NONE',  ( -3.491481338843133355E-15, 4.327174794786742882E-16, -1.000000000000000000 ) ) ;
#209 = UNCERTAINTY_MEASURE_WITH_UNIT (LENGTH_MEASURE( 1.000000000000000082E-05 ), #92, 'distance_accuracy_value', 'NONE');
#210 = FACE_OUTER_BOUND ( 'NONE', #263, .T. ) ;
#211 = DIRECTION ( 'NONE',  ( 0.0000000000000000000, 1.000000000000000000, 0.0000000000000000000 ) ) ;
#212 = LOCAL_TIME ( 14, 56, 47.00000000000000000, #103 ) ;
#213 = DIRECTION ( 'NONE',  ( -3.491481338843133355E-15, 4.327174794786742882E-16, -1.000000000000000000 ) ) ;
#214 = CARTESIAN_POINT ( 'NONE',  ( 4.538925740496072731E-14, 1.499759782661848029E-32, 12.99999999999999822 ) ) ;
#215 = EDGE_CURVE ( 'NONE', #218, #218, #18, .T. ) ;
#216 = CARTESIAN_POINT ( 'NONE',  ( 2.164718430082742680E-13, -7.592810154713590230E-15, 62.00000000000000000 ) ) ;
#217 = AXIS2_PLACEMENT_3D ( 'NONE', #139, #51, #32 ) ;
#218 = VERTEX_POINT ( 'NONE', #185 ) ;
#219 = AXIS2_PLACEMENT_3D ( 'NONE', #252, #229, #154 ) ;
#220 = APPROVAL_PERSON_ORGANIZATION ( #102, #200, #125 ) ;
#221 = CARTESIAN_POINT ( 'NONE',  ( 2.147261023388527077E-13, 1.999999999999989120, 61.50000000000000000 ) ) ;
#222 = COORDINATED_UNIVERSAL_TIME_OFFSET ( 1, 0, .AHEAD. ) ;
#223 = EDGE_LOOP ( 'NONE', ( #251 ) ) ;
#224 = ADVANCED_FACE ( 'NONE', ( #140, #144 ), #54, .T. ) ;
#225 = DATE_AND_TIME ( #59, #243 ) ;
#226 = TOROIDAL_SURFACE ( 'NONE', #115, 2.000000000000004885, 1.000000000000000222 ) ;
#227 = PERSON_AND_ORGANIZATION ( #117, #131 ) ;
#228 = APPLICATION_PROTOCOL_DEFINITION ( 'international standard', 'config_control_design', 1994, #7 ) ;
#229 = DIRECTION ( 'NONE',  ( -3.491481338843133355E-15, 1.224646799147353207E-16, -1.000000000000000000 ) ) ;
#230 = DIRECTION ( 'NONE',  ( 3.491481338843133355E-15, -1.224646799147353207E-16, 1.000000000000000000 ) ) ;
#231 = DIRECTION ( 'NONE',  ( 0.0000000000000000000, 1.000000000000000000, 0.0000000000000000000 ) ) ;
#232 = CIRCLE ( 'NONE', #61, 1.000000000000002442 ) ;
#233 = CARTESIAN_POINT ( 'NONE',  ( 2.164718430082742680E-13, -7.592810154713590230E-15, 62.00000000000000000 ) ) ;
#234 = LOCAL_TIME ( 14, 56, 47.00000000000000000, #207 ) ;
#235 = ORIENTED_EDGE ( 'NONE', *, *, #5, .F. ) ;
#236 = DIRECTION ( 'NONE',  ( 0.0000000000000000000, 1.000000000000000000, 0.0000000000000000000 ) ) ;
#237 = DIRECTION ( 'NONE',  ( -3.491481338843133355E-15, 4.327174794786742882E-16, -1.000000000000000000 ) ) ;
#238 = DIRECTION ( 'NONE',  ( 3.491481338843133355E-15, -4.327174794786742882E-16, 1.000000000000000000 ) ) ;
#239 = DIRECTION ( 'NONE',  ( -3.491481338843133355E-15, 1.224646799147353207E-16, -1.000000000000000000 ) ) ;
#240 = APPROVAL ( #187, 'UNSPECIFIED' ) ;
#241 = PERSON_AND_ORGANIZATION ( #117, #131 ) ;
#242 = AXIS2_PLACEMENT_3D ( 'NONE', #156, #213, #132 ) ;
#243 = LOCAL_TIME ( 14, 56, 47.00000000000000000, #145 ) ;
#244 = EDGE_LOOP ( 'NONE', ( #194 ) ) ;
#245 = CC_DESIGN_PERSON_AND_ORGANIZATION_ASSIGNMENT ( #205, #192, ( #174 ) ) ;
#246 = DATE_TIME_ROLE ( 'creation_date' ) ;
#247 = EDGE_LOOP ( 'NONE', ( #235 ) ) ;
#248 = APPLICATION_CONTEXT ( 'configuration controlled 3d designs of mechanical parts and assemblies' ) ;
#249 = FACE_BOUND ( 'NONE', #195, .T. ) ;
#250 = DIRECTION ( 'NONE',  ( 3.491481338843133355E-15, -4.327174794786742882E-16, 1.000000000000000000 ) ) ;
#251 = ORIENTED_EDGE ( 'NONE', *, *, #35, .T. ) ;
#252 = CARTESIAN_POINT ( 'NONE',  ( 0.0000000000000000000, 0.0000000000000000000, 0.0000000000000000000 ) ) ;
#253 = FACE_OUTER_BOUND ( 'NONE', #223, .T. ) ;
#254 = AXIS2_PLACEMENT_3D ( 'NONE', #94, #256, #118 ) ;
#255 = DIRECTION ( 'NONE',  ( -3.491481338843133355E-15, 4.327174794786742882E-16, -1.000000000000000000 ) ) ;
#256 = DIRECTION ( 'NONE',  ( -3.491481338843133355E-15, 1.224646799147353207E-16, -1.000000000000000000 ) ) ;
#257 = AXIS2_PLACEMENT_3D ( 'NONE', #196, #19, #231 ) ;
#258 = DIRECTION ( 'NONE',  ( 0.0000000000000000000, -1.000000000000000000, 0.0000000000000000000 ) ) ;
#259 = CC_DESIGN_APPROVAL ( #240, ( #171 ) ) ;
#260 = APPLICATION_PROTOCOL_DEFINITION ( 'international standard', 'config_control_design', 1994, #248 ) ;
#261 = CARTESIAN_POINT ( 'NONE',  ( 5.327588194875964509E-14, 1.034074173710929134, 15.25881904510251807 ) ) ;
#262 = PERSON_AND_ORGANIZATION_ROLE ( 'design_owner' ) ;
#263 = EDGE_LOOP ( 'NONE', ( #148 ) ) ;
ENDSEC;
END-ISO-10303-21;
