ISO-10303-21;
HEADER;
FILE_DESCRIPTION (( 'STEP AP203' ),
    '1' );
FILE_NAME ('960118.step',
    '2023-09-27T08:29:46',
    ( '' ),
    ( '' ),
    'SwSTEP 2.0',
    'SolidWorks 2022',
    '' );
FILE_SCHEMA (( 'CONFIG_CONTROL_DESIGN' ));
ENDSEC;

DATA;
#1 = FACE_OUTER_BOUND ( 'NONE', #333, .T. ) ;
#2 = AXIS2_PLACEMENT_3D ( 'NONE', #211, #388, #358 ) ;
#3 = CARTESIAN_POINT ( 'NONE',  ( 1.326762908760390423E-13, 0.000000000000000000, 38.00000000000000000 ) ) ;
#4 = MECHANICAL_CONTEXT ( 'NONE', #251, 'mechanical' ) ;
#5 = CIRCLE ( 'NONE', #68, 0.3549999999999999267 ) ;
#6 = CARTESIAN_POINT ( 'NONE',  ( 0.3550000000000004263, 0.000000000000000000, 0.1354166666666643815 ) ) ;
#7 = ORIENTED_EDGE ( 'NONE', *, *, #142, .T. ) ;
#8 = PERSON_AND_ORGANIZATION ( #383, #327 ) ;
#9 = EDGE_LOOP ( 'NONE', ( #287 ) ) ;
#10 = PERSON_AND_ORGANIZATION ( #383, #327 ) ;
#11 = CIRCLE ( 'NONE', #308, 0.2106624327025926058 ) ;
#12 = APPROVAL ( #237, 'UNSPECIFIED' ) ;
#13 = ORIENTED_EDGE ( 'NONE', *, *, #37, .T. ) ;
#14 = CALENDAR_DATE ( 2023, 27, 9 ) ;
#15 = ORIENTED_EDGE ( 'NONE', *, *, #121, .T. ) ;
#16 = COORDINATED_UNIVERSAL_TIME_OFFSET ( 1, 0, .AHEAD. ) ;
#17 = EDGE_LOOP ( 'NONE', ( #264 ) ) ;
#18 = PERSON_AND_ORGANIZATION_ROLE ( 'creator' ) ;
#19 = CARTESIAN_POINT ( 'NONE',  ( 8.030407079339217761E-15, 0.000000000000000000, 2.300000000000003375 ) ) ;
#20 = UNCERTAINTY_MEASURE_WITH_UNIT (LENGTH_MEASURE( 1.000000000000000082E-05 ), #94, 'distance_accuracy_value', 'NONE');
#21 = AXIS2_PLACEMENT_3D ( 'NONE', #3, #131, #253 ) ;
#22 = DIRECTION ( 'NONE',  ( 3.491481338843133355E-15, -0.000000000000000000, 1.000000000000000000 ) ) ;
#23 = DIRECTION ( 'NONE',  ( 1.000000000000000000, 0.000000000000000000, -4.469228034845714395E-15 ) ) ;
#24 = DIRECTION ( 'NONE',  ( 3.491481338843133355E-15, -0.000000000000000000, 1.000000000000000000 ) ) ;
#25 = AXIS2_PLACEMENT_3D ( 'NONE', #220, #334, #190 ) ;
#26 = AXIS2_PLACEMENT_3D ( 'NONE', #218, #197, #306 ) ;
#27 = DIRECTION ( 'NONE',  ( 3.491481338843133355E-15, -0.000000000000000000, 1.000000000000000000 ) ) ;
#28 = ADVANCED_FACE ( 'NONE', ( #373, #39 ), #151, .F. ) ;
#29 = FACE_OUTER_BOUND ( 'NONE', #144, .T. ) ;
#30 = VERTEX_POINT ( 'NONE', #363 ) ;
#31 = DIRECTION ( 'NONE',  ( -1.000000000000000000, 0.000000000000000000, 3.512204220727690448E-15 ) ) ;
#32 = LOCAL_TIME ( 10, 29, 46.00000000000000000, #207 ) ;
#33 = DIRECTION ( 'NONE',  ( 3.491481338843133355E-15, -0.000000000000000000, 1.000000000000000000 ) ) ;
#34 = CARTESIAN_POINT ( 'NONE',  ( 0.3550000000000011480, 0.000000000000000000, 0.3645833333333335924 ) ) ;
#35 = CARTESIAN_POINT ( 'NONE',  ( 4.728047646350040591E-16, 0.000000000000000000, 0.1354166666666656305 ) ) ;
#36 = CARTESIAN_POINT ( 'NONE',  ( 1.500000000000025979, 0.000000000000000000, 7.432600579729815138 ) ) ;
#37 = EDGE_CURVE ( 'NONE', #318, #318, #337, .T. ) ;
#38 = AXIS2_PLACEMENT_3D ( 'NONE', #83, #215, #381 ) ;
#39 = FACE_OUTER_BOUND ( 'NONE', #80, .T. ) ;
#40 = ADVANCED_FACE ( 'NONE', ( #240, #56 ), #243, .T. ) ;
#41 = EDGE_LOOP ( 'NONE', ( #293 ) ) ;
#42 = CIRCLE ( 'NONE', #96, 1.199999999999993516 ) ;
#43 = CARTESIAN_POINT ( 'NONE',  ( 8.934068945451840430E-15, 0.000000000000000000, 2.558819045102515677 ) ) ;
#44 = DATE_AND_TIME ( #311, #32 ) ;
#45 = ORIENTED_EDGE ( 'NONE', *, *, #128, .T. ) ;
#46 = CC_DESIGN_APPROVAL ( #82, ( #239 ) ) ;
#47 = DIRECTION ( 'NONE',  ( 3.491481338843133355E-15, -0.000000000000000000, 1.000000000000000000 ) ) ;
#48 = DATE_AND_TIME ( #145, #159 ) ;
#49 = EDGE_LOOP ( 'NONE', ( #7 ) ) ;
#50 = APPROVAL_ROLE ( '' ) ;
#51 = EDGE_LOOP ( 'NONE', ( #15 ) ) ;
#52 = DIRECTION ( 'NONE',  ( 3.491481338843133355E-15, -0.000000000000000000, 1.000000000000000000 ) ) ;
#53 = CARTESIAN_POINT ( 'NONE',  ( 8.030407079339206717E-15, 0.000000000000000000, 2.299999999999999822 ) ) ;
#54 = ADVANCED_FACE ( 'NONE', ( #116, #326 ), #85, .T. ) ;
#55 = DIRECTION ( 'NONE',  ( 3.491481338843133355E-15, -0.000000000000000000, 1.000000000000000000 ) ) ;
#56 = FACE_OUTER_BOUND ( 'NONE', #285, .T. ) ;
#57 = CONICAL_SURFACE ( 'NONE', #324, 1.499999999999996447, 0.7853981633974501664 ) ;
#58 = CARTESIAN_POINT ( 'NONE',  ( 8.934068945451840430E-15, 0.000000000000000000, 2.558819045102515677 ) ) ;
#59 = CC_DESIGN_APPROVAL ( #101, ( #271 ) ) ;
#60 = AXIS2_PLACEMENT_3D ( 'NONE', #360, #273, #66 ) ;
#61 = EDGE_CURVE ( 'NONE', #369, #369, #72, .T. ) ;
#62 = CARTESIAN_POINT ( 'NONE',  ( 1.316288464743861212E-13, 0.000000000000000000, 37.69999999999999574 ) ) ;
#63 = CARTESIAN_POINT ( 'NONE',  ( 1.745740669421566678E-15, 0.2106624327025926058, 0.5000000000000000000 ) ) ;
#64 = CARTESIAN_POINT ( 'NONE',  ( 0.000000000000000000, 0.000000000000000000, 0.000000000000000000 ) ) ;
#65 = CIRCLE ( 'NONE', #343, 1.499999999999996447 ) ;
#66 = DIRECTION ( 'NONE',  ( 1.000000000000000000, 0.000000000000000000, -3.388131789017201356E-15 ) ) ;
#67 =( NAMED_UNIT ( * ) PLANE_ANGLE_UNIT ( ) SI_UNIT ( $, .RADIAN. ) );
#68 = AXIS2_PLACEMENT_3D ( 'NONE', #95, #307, #93 ) ;
#69 = FACE_OUTER_BOUND ( 'NONE', #205, .T. ) ;
#70 = DIRECTION ( 'NONE',  ( 3.491481338843133355E-15, -0.000000000000000000, 1.000000000000000000 ) ) ;
#71 = CARTESIAN_POINT ( 'NONE',  ( 0.1600000000000017519, 0.000000000000000000, 0.4999999999999998890 ) ) ;
#72 = CIRCLE ( 'NONE', #288, 0.1565358449660651796 ) ;
#73 = CARTESIAN_POINT ( 'NONE',  ( 0.2106624327025943544, 0.000000000000000000, 0.4999999999999996669 ) ) ;
#74 = PERSON_AND_ORGANIZATION ( #383, #327 ) ;
#75 = EDGE_LOOP ( 'NONE', ( #290 ) ) ;
#76 = ADVANCED_FACE ( 'NONE', ( #187, #270 ), #299, .T. ) ;
#77 = CONICAL_SURFACE ( 'NONE', #114, 0.3549999999999999822, 1.047197551196612064 ) ;
#78 = CARTESIAN_POINT ( 'NONE',  ( 0.1600000000000078026, 0.000000000000000000, 2.300000000000002931 ) ) ;
#79 = COORDINATED_UNIVERSAL_TIME_OFFSET ( 1, 0, .AHEAD. ) ;
#80 = EDGE_LOOP ( 'NONE', ( #45 ) ) ;
#81 = SECURITY_CLASSIFICATION_LEVEL ( 'unclassified' ) ;
#82 = APPROVAL ( #176, 'UNSPECIFIED' ) ;
#83 = CARTESIAN_POINT ( 'NONE',  ( 7.637615428719239830E-16, 0.000000000000000000, 0.2187499999999967248 ) ) ;
#84 = FACE_OUTER_BOUND ( 'NONE', #138, .T. ) ;
#85 = CONICAL_SURFACE ( 'NONE', #2, 0.2106624327025926058, 1.047197551196575871 ) ;
#86 = ADVANCED_FACE ( 'NONE', ( #298, #217 ), #87, .T. ) ;
#87 = CYLINDRICAL_SURFACE ( 'NONE', #303, 0.2106624327025926335 ) ;
#88 = DIRECTION ( 'NONE',  ( 3.491481338843133355E-15, -0.000000000000000000, 1.000000000000000000 ) ) ;
#89 = CARTESIAN_POINT ( 'NONE',  ( 1.326762908760390423E-13, 0.000000000000000000, 38.00000000000000000 ) ) ;
#90 = AXIS2_PLACEMENT_3D ( 'NONE', #182, #185, #385 ) ;
#91 = CYLINDRICAL_SURFACE ( 'NONE', #184, 0.3549999999999999267 ) ;
#92 = AXIS2_PLACEMENT_3D ( 'NONE', #35, #27, #248 ) ;
#93 = DIRECTION ( 'NONE',  ( 1.000000000000000000, 0.000000000000000000, -3.512204220727691237E-15 ) ) ;
#94 =( LENGTH_UNIT ( ) NAMED_UNIT ( * ) SI_UNIT ( .MILLI., .METRE. ) );
#95 = CARTESIAN_POINT ( 'NONE',  ( 1.272935904786564295E-15, 0.000000000000000000, 0.3645833333333348136 ) ) ;
#96 = AXIS2_PLACEMENT_3D ( 'NONE', #227, #70, #196 ) ;
#97 = DIRECTION ( 'NONE',  ( -3.491481338843133355E-15, 0.000000000000000000, -1.000000000000000000 ) ) ;
#98 = ADVANCED_BREP_SHAPE_REPRESENTATION ( '960118', ( #120, #386 ), #393 ) ;
#99 = FACE_BOUND ( 'NONE', #258, .T. ) ;
#100 = DIRECTION ( 'NONE',  ( 1.000000000000000000, 0.000000000000000000, -4.469228034845714395E-15 ) ) ;
#101 = APPROVAL ( #316, 'UNSPECIFIED' ) ;
#102 = ORIENTED_EDGE ( 'NONE', *, *, #279, .T. ) ;
#103 = CARTESIAN_POINT ( 'NONE',  ( 0.1940741737109385190, 0.000000000000000000, 2.558819045102514789 ) ) ;
#104 = SHAPE_DEFINITION_REPRESENTATION ( #183, #98 ) ;
#105 = EDGE_LOOP ( 'NONE', ( #313 ) ) ;
#106 = EDGE_LOOP ( 'NONE', ( #320 ) ) ;
#107 = CARTESIAN_POINT ( 'NONE',  ( 0.2106624327025934107, 0.000000000000000000, 0.2187499999999960032 ) ) ;
#108 = APPROVAL_DATE_TIME ( #48, #12 ) ;
#109 = ORIENTED_EDGE ( 'NONE', *, *, #364, .F. ) ;
#110 = ADVANCED_FACE ( 'NONE', ( #380, #246 ), #352, .T. ) ;
#111 = CARTESIAN_POINT ( 'NONE',  ( 1.500000000000127898, 0.000000000000000000, 37.69999999999998863 ) ) ;
#112 = DATE_TIME_ROLE ( 'classification_date' ) ;
#113 = EDGE_LOOP ( 'NONE', ( #164 ) ) ;
#114 = AXIS2_PLACEMENT_3D ( 'NONE', #366, #97, #31 ) ;
#115 = DIRECTION ( 'NONE',  ( 1.000000000000000000, 0.000000000000000000, -2.710505431213764635E-15 ) ) ;
#116 = FACE_OUTER_BOUND ( 'NONE', #370, .T. ) ;
#117 = EDGE_CURVE ( 'NONE', #376, #376, #137, .T. ) ;
#118 = DIRECTION ( 'NONE',  ( 1.000000000000000000, 0.000000000000000000, -3.491481338843133355E-15 ) ) ;
#119 = DIRECTION ( 'NONE',  ( 3.491481338843133355E-15, -0.000000000000000000, 1.000000000000000000 ) ) ;
#120 = MANIFOLD_SOLID_BREP ( 'Corps-Déplacer/Copier1', #314 ) ;
#121 = EDGE_CURVE ( 'NONE', #231, #231, #11, .T. ) ;
#122 = DIRECTION ( 'NONE',  ( 1.000000000000000000, 0.000000000000000000, -3.602642915508840499E-15 ) ) ;
#123 = CIRCLE ( 'NONE', #199, 0.1599999999999997813 ) ;
#124 = CARTESIAN_POINT ( 'NONE',  ( 1.636631877582708111E-15, 0.000000000000000000, 0.4687499999999969469 ) ) ;
#125 = CIRCLE ( 'NONE', #92, 0.3549999999999999822 ) ;
#126 = DIRECTION ( 'NONE',  ( -3.491481338843133355E-15, 0.000000000000000000, -1.000000000000000000 ) ) ;
#127 = VERTEX_POINT ( 'NONE', #36 ) ;
#128 = EDGE_CURVE ( 'NONE', #229, #229, #123, .T. ) ;
#129 = FACE_BOUND ( 'NONE', #349, .T. ) ;
#130 = AXIS2_PLACEMENT_3D ( 'NONE', #63, #126, #301 ) ;
#131 = DIRECTION ( 'NONE',  ( 3.491481338843133355E-15, -0.000000000000000000, 1.000000000000000000 ) ) ;
#132 = PERSON_AND_ORGANIZATION ( #383, #327 ) ;
#133 = CONICAL_SURFACE ( 'NONE', #367, 0.1940741737109295539, 0.2617993877991429685 ) ;
#134 = CARTESIAN_POINT ( 'NONE',  ( 0.3550000000000012590, 0.000000000000000000, 0.3854166666666646313 ) ) ;
#135 =( NAMED_UNIT ( * ) SI_UNIT ( $, .STERADIAN. ) SOLID_ANGLE_UNIT ( ) );
#136 = ORIENTED_EDGE ( 'NONE', *, *, #364, .T. ) ;
#137 = CIRCLE ( 'NONE', #359, 0.1940741737109295539 ) ;
#138 = EDGE_LOOP ( 'NONE', ( #262 ) ) ;
#139 = LOCAL_TIME ( 10, 29, 46.00000000000000000, #16 ) ;
#140 = CALENDAR_DATE ( 2023, 27, 9 ) ;
#141 = EDGE_LOOP ( 'NONE', ( #166 ) ) ;
#142 = EDGE_CURVE ( 'NONE', #202, #202, #242, .T. ) ;
#143 = APPROVAL_ROLE ( '' ) ;
#144 = EDGE_LOOP ( 'NONE', ( #230 ) ) ;
#145 = CALENDAR_DATE ( 2023, 27, 9 ) ;
#146 = DIRECTION ( 'NONE',  ( 1.000000000000000000, 0.000000000000000000, -3.491481338843133355E-15 ) ) ;
#147 = PRODUCT_RELATED_PRODUCT_CATEGORY ( 'detail', '', ( #389 ) ) ;
#148 = DIRECTION ( 'NONE',  ( 3.491481338843133355E-15, -0.000000000000000000, 1.000000000000000000 ) ) ;
#149 = DESIGN_CONTEXT ( 'detailed design', #310, 'design' ) ;
#150 = CARTESIAN_POINT ( 'NONE',  ( -3.444496146810154444E-34, 0.000000000000000000, -9.865429061555439281E-20 ) ) ;
#151 = TOROIDAL_SURFACE ( 'NONE', #181, 1.159999999999999698, 1.000000000000000000 ) ;
#152 = CARTESIAN_POINT ( 'NONE',  ( 1.316288464743861212E-13, 0.000000000000000000, 37.69999999999999574 ) ) ;
#153 = APPROVAL_PERSON_ORGANIZATION ( #10, #101, #263 ) ;
#154 = DIRECTION ( 'NONE',  ( 1.000000000000000000, 0.000000000000000000, 0.000000000000000000 ) ) ;
#155 = FACE_BOUND ( 'NONE', #238, .T. ) ;
#156 = CARTESIAN_POINT ( 'NONE',  ( 0.000000000000000000, 0.000000000000000000, 0.000000000000000000 ) ) ;
#157 = EDGE_CURVE ( 'NONE', #175, #175, #65, .T. ) ;
#158 = CARTESIAN_POINT ( 'NONE',  ( 1.345675099345788088E-15, 0.000000000000000000, 0.3854166666666658525 ) ) ;
#159 = LOCAL_TIME ( 10, 29, 46.00000000000000000, #79 ) ;
#160 = DIRECTION ( 'NONE',  ( 1.000000000000000000, 0.000000000000000000, 0.000000000000000000 ) ) ;
#161 = PLANE ( 'NONE',  #26 ) ;
#162 = VERTEX_POINT ( 'NONE', #71 ) ;
#163 = FACE_BOUND ( 'NONE', #351, .T. ) ;
#164 = ORIENTED_EDGE ( 'NONE', *, *, #157, .F. ) ;
#165 = ADVANCED_FACE ( 'NONE', ( #84 ), #212, .F. ) ;
#166 = ORIENTED_EDGE ( 'NONE', *, *, #226, .T. ) ;
#167 = PERSON_AND_ORGANIZATION ( #383, #327 ) ;
#168 = ORIENTED_EDGE ( 'NONE', *, *, #325, .F. ) ;
#169 = COORDINATED_UNIVERSAL_TIME_OFFSET ( 1, 0, .AHEAD. ) ;
#170 = EDGE_LOOP ( 'NONE', ( #312 ) ) ;
#171 = CIRCLE ( 'NONE', #25, 0.3549999999999999822 ) ;
#172 = AXIS2_PLACEMENT_3D ( 'NONE', #150, #382, #118 ) ;
#173 = ORIENTED_EDGE ( 'NONE', *, *, #180, .F. ) ;
#174 = LOCAL_TIME ( 10, 29, 46.00000000000000000, #289 ) ;
#175 = VERTEX_POINT ( 'NONE', #111 ) ;
#176 = APPROVAL_STATUS ( 'not_yet_approved' ) ;
#177 = ORIENTED_EDGE ( 'NONE', *, *, #234, .F. ) ;
#178 = PERSON_AND_ORGANIZATION_ROLE ( 'creator' ) ;
#179 = ORIENTED_EDGE ( 'NONE', *, *, #265, .F. ) ;
#180 = EDGE_CURVE ( 'NONE', #291, #291, #384, .T. ) ;
#181 = AXIS2_PLACEMENT_3D ( 'NONE', #53, #52, #268 ) ;
#182 = CARTESIAN_POINT ( 'NONE',  ( 1.745740669421568255E-15, 0.000000000000000000, 0.5000000000000004441 ) ) ;
#183 = PRODUCT_DEFINITION_SHAPE ( 'NONE', 'NONE',  #296 ) ;
#184 = AXIS2_PLACEMENT_3D ( 'NONE', #304, #33, #365 ) ;
#185 = DIRECTION ( 'NONE',  ( 3.491481338843133355E-15, -0.000000000000000000, 1.000000000000000000 ) ) ;
#186 = DIRECTION ( 'NONE',  ( 1.000000000000000000, 0.000000000000000000, -3.512204220727691237E-15 ) ) ;
#187 = FACE_OUTER_BOUND ( 'NONE', #75, .T. ) ;
#188 = AXIS2_PLACEMENT_3D ( 'NONE', #156, #274, #392 ) ;
#189 = DIRECTION ( 'NONE',  ( 1.000000000000000000, 0.000000000000000000, -3.602642915508840499E-15 ) ) ;
#190 = DIRECTION ( 'NONE',  ( 1.000000000000000000, 0.000000000000000000, -3.474028087893693774E-15 ) ) ;
#191 = EDGE_CURVE ( 'NONE', #30, #30, #42, .T. ) ;
#192 = CIRCLE ( 'NONE', #335, 0.2106624327025926058 ) ;
#193 = DIRECTION ( 'NONE',  ( -1.000000000000000000, 0.000000000000000000, 4.625929269271496366E-15 ) ) ;
#194 = DIRECTION ( 'NONE',  ( 0.000000000000000000, 0.000000000000000000, 1.000000000000000000 ) ) ;
#195 = AXIS2_PLACEMENT_3D ( 'NONE', #329, #148, #154 ) ;
#196 = DIRECTION ( 'NONE',  ( 1.000000000000000000, 0.000000000000000000, -5.782411586589388010E-15 ) ) ;
#197 = DIRECTION ( 'NONE',  ( -3.491481338843133355E-15, 0.000000000000000000, -1.000000000000000000 ) ) ;
#198 = CARTESIAN_POINT ( 'NONE',  ( 0.3550000000000003153, 0.000000000000000000, 0.1145833333333333565 ) ) ;
#199 = AXIS2_PLACEMENT_3D ( 'NONE', #19, #328, #115 ) ;
#200 = CIRCLE ( 'NONE', #355, 1.500000000000000000 ) ;
#201 = EDGE_LOOP ( 'NONE', ( #235 ) ) ;
#202 = VERTEX_POINT ( 'NONE', #107 ) ;
#203 = ADVANCED_FACE ( 'NONE', ( #129, #221 ), #57, .T. ) ;
#204 = DATE_AND_TIME ( #14, #174 ) ;
#205 = EDGE_LOOP ( 'NONE', ( #346 ) ) ;
#206 = FACE_BOUND ( 'NONE', #201, .T. ) ;
#207 = COORDINATED_UNIVERSAL_TIME_OFFSET ( 1, 0, .AHEAD. ) ;
#208 = EDGE_LOOP ( 'NONE', ( #13 ) ) ;
#209 = APPROVAL_DATE_TIME ( #44, #101 ) ;
#210 = EDGE_LOOP ( 'NONE', ( #168 ) ) ;
#211 = CARTESIAN_POINT ( 'NONE',  ( 9.819791265496200149E-16, 0.000000000000000000, 0.2812499999999967804 ) ) ;
#212 = PLANE ( 'NONE',  #172 ) ;
#213 = LOCAL_TIME ( 10, 29, 46.00000000000000000, #169 ) ;
#214 = CARTESIAN_POINT ( 'NONE',  ( 1.345675099345788088E-15, 0.000000000000000000, 0.3854166666666658525 ) ) ;
#215 = DIRECTION ( 'NONE',  ( 3.491481338843133355E-15, -0.000000000000000000, 1.000000000000000000 ) ) ;
#216 = AXIS2_PLACEMENT_3D ( 'NONE', #295, #241, #354 ) ;
#217 = FACE_OUTER_BOUND ( 'NONE', #49, .T. ) ;
#218 = CARTESIAN_POINT ( 'NONE',  ( 1.326762908760390423E-13, 1.199999999999993516, 38.00000000000000000 ) ) ;
#219 = ADVANCED_FACE ( 'NONE', ( #69 ), #161, .F. ) ;
#220 = CARTESIAN_POINT ( 'NONE',  ( 4.000655700757801179E-16, 0.000000000000000000, 0.1145833333333345916 ) ) ;
#221 = FACE_OUTER_BOUND ( 'NONE', #106, .T. ) ;
#222 = APPLICATION_PROTOCOL_DEFINITION ( 'international standard', 'config_control_design', 1994, #310 ) ;
#223 = AXIS2_PLACEMENT_3D ( 'NONE', #214, #55, #186 ) ;
#224 = FACE_OUTER_BOUND ( 'NONE', #17, .T. ) ;
#225 = APPLICATION_PROTOCOL_DEFINITION ( 'international standard', 'config_control_design', 1994, #251 ) ;
#226 = EDGE_CURVE ( 'NONE', #284, #284, #192, .T. ) ;
#227 = CARTESIAN_POINT ( 'NONE',  ( 1.326762908760390423E-13, 0.000000000000000000, 38.00000000000000000 ) ) ;
#228 = CARTESIAN_POINT ( 'NONE',  ( 0.2106624327025942434, 0.000000000000000000, 0.4687499999999961697 ) ) ;
#229 = VERTEX_POINT ( 'NONE', #78 ) ;
#230 = ORIENTED_EDGE ( 'NONE', *, *, #265, .T. ) ;
#231 = VERTEX_POINT ( 'NONE', #260 ) ;
#232 = CONICAL_SURFACE ( 'NONE', #188, 0.1565358449660651796, 1.047197551196594967 ) ;
#233 = EDGE_LOOP ( 'NONE', ( #102 ) ) ;
#234 = EDGE_CURVE ( 'NONE', #281, #281, #171, .T. ) ;
#235 = ORIENTED_EDGE ( 'NONE', *, *, #117, .T. ) ;
#236 = PERSON_AND_ORGANIZATION_ROLE ( 'design_supplier' ) ;
#237 = APPROVAL_STATUS ( 'not_yet_approved' ) ;
#238 = EDGE_LOOP ( 'NONE', ( #109 ) ) ;
#239 = PRODUCT_DEFINITION_FORMATION_WITH_SPECIFIED_SOURCE ( 'ANY', '', #389, .NOT_KNOWN. ) ;
#240 = FACE_OUTER_BOUND ( 'NONE', #170, .T. ) ;
#241 = DIRECTION ( 'NONE',  ( 3.491481338843133355E-15, -0.000000000000000000, 1.000000000000000000 ) ) ;
#242 = CIRCLE ( 'NONE', #38, 0.2106624327025926335 ) ;
#243 = CYLINDRICAL_SURFACE ( 'NONE', #195, 0.1599999999999998646 ) ;
#244 = ADVANCED_FACE ( 'NONE', ( #155, #332 ), #300, .F. ) ;
#245 = CARTESIAN_POINT ( 'NONE',  ( 9.819791265496200149E-16, 0.000000000000000000, 0.2812499999999967804 ) ) ;
#246 = FACE_OUTER_BOUND ( 'NONE', #105, .T. ) ;
#247 = ADVANCED_FACE ( 'NONE', ( #1, #29 ), #91, .T. ) ;
#248 = DIRECTION ( 'NONE',  ( 1.000000000000000000, 0.000000000000000000, -3.512204220727690448E-15 ) ) ;
#249 = FACE_OUTER_BOUND ( 'NONE', #113, .T. ) ;
#250 = DIRECTION ( 'NONE',  ( -3.491481338843133355E-15, 0.000000000000000000, -1.000000000000000000 ) ) ;
#251 = APPLICATION_CONTEXT ( 'configuration controlled 3d designs of mechanical parts and assemblies' ) ;
#252 = FACE_OUTER_BOUND ( 'NONE', #41, .T. ) ;
#253 = DIRECTION ( 'NONE',  ( 1.000000000000000000, 0.000000000000000000, -4.625929269271490844E-15 ) ) ;
#254 = PERSON_AND_ORGANIZATION_ROLE ( 'design_owner' ) ;
#255 = EDGE_LOOP ( 'NONE', ( #259 ) ) ;
#256 = PERSON_AND_ORGANIZATION ( #383, #327 ) ;
#257 = ADVANCED_FACE ( 'NONE', ( #394, #362 ), #232, .T. ) ;
#258 = EDGE_LOOP ( 'NONE', ( #322 ) ) ;
#259 = ORIENTED_EDGE ( 'NONE', *, *, #121, .F. ) ;
#260 = CARTESIAN_POINT ( 'NONE',  ( 0.2106624327025935772, 0.000000000000000000, 0.2812499999999960032 ) ) ;
#261 = DATE_AND_TIME ( #140, #213 ) ;
#262 = ORIENTED_EDGE ( 'NONE', *, *, #61, .F. ) ;
#263 = APPROVAL_ROLE ( '' ) ;
#264 = ORIENTED_EDGE ( 'NONE', *, *, #180, .T. ) ;
#265 = EDGE_CURVE ( 'NONE', #395, #395, #5, .T. ) ;
#266 = CARTESIAN_POINT ( 'NONE',  ( 0.000000000000000000, 0.000000000000000000, 0.000000000000000000 ) ) ;
#267 = DIRECTION ( 'NONE',  ( 3.491481338843133355E-15, -0.000000000000000000, 1.000000000000000000 ) ) ;
#268 = DIRECTION ( 'NONE',  ( 1.000000000000000000, 0.000000000000000000, -3.491481338843132961E-15 ) ) ;
#269 = CC_DESIGN_PERSON_AND_ORGANIZATION_ASSIGNMENT ( #8, #236, ( #239 ) ) ;
#270 = FACE_OUTER_BOUND ( 'NONE', #141, .T. ) ;
#271 = SECURITY_CLASSIFICATION ( '', '', #81 ) ;
#272 = CC_DESIGN_PERSON_AND_ORGANIZATION_ASSIGNMENT ( #256, #18, ( #296 ) ) ;
#273 = DIRECTION ( 'NONE',  ( 3.491481338843133355E-15, -0.000000000000000000, 1.000000000000000000 ) ) ;
#274 = DIRECTION ( 'NONE',  ( 3.491481338843133355E-15, -0.000000000000000000, 1.000000000000000000 ) ) ;
#275 = APPROVAL_PERSON_ORGANIZATION ( #74, #12, #143 ) ;
#276 = FACE_OUTER_BOUND ( 'NONE', #233, .T. ) ;
#277 = DIRECTION ( 'NONE',  ( 3.491481338843133355E-15, -0.000000000000000000, 1.000000000000000000 ) ) ;
#278 = VERTEX_POINT ( 'NONE', #6 ) ;
#279 = EDGE_CURVE ( 'NONE', #127, #127, #200, .T. ) ;
#280 = CYLINDRICAL_SURFACE ( 'NONE', #21, 1.499999999999998224 ) ;
#281 = VERTEX_POINT ( 'NONE', #198 ) ;
#282 = CC_DESIGN_SECURITY_CLASSIFICATION ( #271, ( #239 ) ) ;
#283 = APPROVAL_PERSON_ORGANIZATION ( #348, #82, #50 ) ;
#284 = VERTEX_POINT ( 'NONE', #228 ) ;
#285 = EDGE_LOOP ( 'NONE', ( #136 ) ) ;
#286 = DATE_AND_TIME ( #372, #139 ) ;
#287 = ORIENTED_EDGE ( 'NONE', *, *, #117, .F. ) ;
#288 = AXIS2_PLACEMENT_3D ( 'NONE', #266, #323, #146 ) ;
#289 = COORDINATED_UNIVERSAL_TIME_OFFSET ( 1, 0, .AHEAD. ) ;
#290 = ORIENTED_EDGE ( 'NONE', *, *, #37, .F. ) ;
#291 = VERTEX_POINT ( 'NONE', #134 ) ;
#292 = PERSON_AND_ORGANIZATION ( #383, #327 ) ;
#293 = ORIENTED_EDGE ( 'NONE', *, *, #325, .T. ) ;
#294 = EDGE_LOOP ( 'NONE', ( #177 ) ) ;
#295 = CARTESIAN_POINT ( 'NONE',  ( 1.326762908760390423E-13, 0.000000000000000000, 38.00000000000000000 ) ) ;
#296 = PRODUCT_DEFINITION ( 'UNKNOWN', '', #239, #149 ) ;
#297 = DIRECTION ( 'NONE',  ( 1.000000000000000000, 0.000000000000000000, 0.000000000000000000 ) ) ;
#298 = FACE_OUTER_BOUND ( 'NONE', #255, .T. ) ;
#299 = CYLINDRICAL_SURFACE ( 'NONE', #338, 0.2106624327025926058 ) ;
#300 = PLANE ( 'NONE',  #130 ) ;
#301 = DIRECTION ( 'NONE',  ( -1.000000000000000000, 0.000000000000000000, 3.491481338843133355E-15 ) ) ;
#302 = ORIENTED_EDGE ( 'NONE', *, *, #191, .F. ) ;
#303 = AXIS2_PLACEMENT_3D ( 'NONE', #89, #88, #330 ) ;
#304 = CARTESIAN_POINT ( 'NONE',  ( 1.326762908760390423E-13, 0.000000000000000000, 38.00000000000000000 ) ) ;
#305 = CC_DESIGN_PERSON_AND_ORGANIZATION_ASSIGNMENT ( #292, #350, ( #271 ) ) ;
#306 = DIRECTION ( 'NONE',  ( -1.000000000000000000, 0.000000000000000000, 3.491481338843133355E-15 ) ) ;
#307 = DIRECTION ( 'NONE',  ( 3.491481338843133355E-15, -0.000000000000000000, 1.000000000000000000 ) ) ;
#308 = AXIS2_PLACEMENT_3D ( 'NONE', #245, #267, #189 ) ;
#309 = CC_DESIGN_DATE_AND_TIME_ASSIGNMENT ( #286, #112, ( #271 ) ) ;
#310 = APPLICATION_CONTEXT ( 'configuration controlled 3d designs of mechanical parts and assemblies' ) ;
#311 = CALENDAR_DATE ( 2023, 27, 9 ) ;
#312 = ORIENTED_EDGE ( 'NONE', *, *, #128, .F. ) ;
#313 = ORIENTED_EDGE ( 'NONE', *, *, #234, .T. ) ;
#314 = CLOSED_SHELL ( 'NONE', ( #165, #257, #110, #375, #86, #54, #247, #379, #76, #244, #40, #28, #391, #387, #203, #219 ) ) ;
#315 = FACE_OUTER_BOUND ( 'NONE', #347, .T. ) ;
#316 = APPROVAL_STATUS ( 'not_yet_approved' ) ;
#317 = ORIENTED_EDGE ( 'NONE', *, *, #61, .T. ) ;
#318 = VERTEX_POINT ( 'NONE', #73 ) ;
#319 = CC_DESIGN_PERSON_AND_ORGANIZATION_ASSIGNMENT ( #132, #254, ( #389 ) ) ;
#320 = ORIENTED_EDGE ( 'NONE', *, *, #157, .T. ) ;
#321 = DATE_TIME_ROLE ( 'creation_date' ) ;
#322 = ORIENTED_EDGE ( 'NONE', *, *, #142, .F. ) ;
#323 = DIRECTION ( 'NONE',  ( 3.491481338843133355E-15, -0.000000000000000000, 1.000000000000000000 ) ) ;
#324 = AXIS2_PLACEMENT_3D ( 'NONE', #62, #341, #193 ) ;
#325 = EDGE_CURVE ( 'NONE', #278, #278, #125, .T. ) ;
#326 = FACE_BOUND ( 'NONE', #51, .T. ) ;
#327 = ORGANIZATION ( 'UNSPECIFIED', 'UNSPECIFIED', '' ) ;
#328 = DIRECTION ( 'NONE',  ( 3.491481338843133355E-15, -0.000000000000000000, 1.000000000000000000 ) ) ;
#329 = CARTESIAN_POINT ( 'NONE',  ( 1.326762908760390423E-13, 0.000000000000000000, 38.00000000000000000 ) ) ;
#330 = DIRECTION ( 'NONE',  ( 1.000000000000000000, 0.000000000000000000, 0.000000000000000000 ) ) ;
#331 = CC_DESIGN_APPROVAL ( #12, ( #296 ) ) ;
#332 = FACE_OUTER_BOUND ( 'NONE', #208, .T. ) ;
#333 = EDGE_LOOP ( 'NONE', ( #173 ) ) ;
#334 = DIRECTION ( 'NONE',  ( 3.491481338843133355E-15, -0.000000000000000000, 1.000000000000000000 ) ) ;
#335 = AXIS2_PLACEMENT_3D ( 'NONE', #124, #342, #122 ) ;
#336 = CC_DESIGN_PERSON_AND_ORGANIZATION_ASSIGNMENT ( #167, #178, ( #239 ) ) ;
#337 = CIRCLE ( 'NONE', #90, 0.2106624327025926058 ) ;
#338 = AXIS2_PLACEMENT_3D ( 'NONE', #353, #22, #297 ) ;
#339 = CARTESIAN_POINT ( 'NONE',  ( 2.595078622320132345E-14, 0.000000000000000000, 7.432600579729820467 ) ) ;
#340 = CONICAL_SURFACE ( 'NONE', #345, 0.3549999999999999267, 1.047197551196611842 ) ;
#341 = DIRECTION ( 'NONE',  ( -3.491481338843133355E-15, 0.000000000000000000, -1.000000000000000000 ) ) ;
#342 = DIRECTION ( 'NONE',  ( 3.491481338843133355E-15, -0.000000000000000000, 1.000000000000000000 ) ) ;
#343 = AXIS2_PLACEMENT_3D ( 'NONE', #152, #119, #356 ) ;
#344 = ORIENTED_EDGE ( 'NONE', *, *, #226, .F. ) ;
#345 = AXIS2_PLACEMENT_3D ( 'NONE', #158, #250, #390 ) ;
#346 = ORIENTED_EDGE ( 'NONE', *, *, #191, .T. ) ;
#347 = EDGE_LOOP ( 'NONE', ( #378 ) ) ;
#348 = PERSON_AND_ORGANIZATION ( #383, #327 ) ;
#349 = EDGE_LOOP ( 'NONE', ( #302 ) ) ;
#350 = PERSON_AND_ORGANIZATION_ROLE ( 'classification_officer' ) ;
#351 = EDGE_LOOP ( 'NONE', ( #344 ) ) ;
#352 = CYLINDRICAL_SURFACE ( 'NONE', #216, 0.3549999999999999822 ) ;
#353 = CARTESIAN_POINT ( 'NONE',  ( 1.326762908760390423E-13, 0.000000000000000000, 38.00000000000000000 ) ) ;
#354 = DIRECTION ( 'NONE',  ( 1.000000000000000000, 0.000000000000000000, 0.000000000000000000 ) ) ;
#355 = AXIS2_PLACEMENT_3D ( 'NONE', #339, #277, #368 ) ;
#356 = DIRECTION ( 'NONE',  ( 1.000000000000000000, 0.000000000000000000, -4.625929269271496366E-15 ) ) ;
#357 = CC_DESIGN_DATE_AND_TIME_ASSIGNMENT ( #204, #321, ( #296 ) ) ;
#358 = DIRECTION ( 'NONE',  ( 1.000000000000000000, 0.000000000000000000, -3.602642915508840499E-15 ) ) ;
#359 = AXIS2_PLACEMENT_3D ( 'NONE', #58, #24, #23 ) ;
#360 = CARTESIAN_POINT ( 'NONE',  ( 1.745740669421568255E-15, 0.000000000000000000, 0.5000000000000004441 ) ) ;
#361 = CIRCLE ( 'NONE', #60, 0.1600000000000000033 ) ;
#362 = FACE_BOUND ( 'NONE', #374, .T. ) ;
#363 = CARTESIAN_POINT ( 'NONE',  ( 1.200000000000126299, 0.000000000000000000, 37.99999999999999289 ) ) ;
#364 = EDGE_CURVE ( 'NONE', #162, #162, #361, .T. ) ;
#365 = DIRECTION ( 'NONE',  ( 1.000000000000000000, 0.000000000000000000, 0.000000000000000000 ) ) ;
#366 = CARTESIAN_POINT ( 'NONE',  ( 4.728047646350040591E-16, 0.000000000000000000, 0.1354166666666656305 ) ) ;
#367 = AXIS2_PLACEMENT_3D ( 'NONE', #43, #47, #100 ) ;
#368 = DIRECTION ( 'NONE',  ( 1.000000000000000000, 0.000000000000000000, -3.469446951953614189E-15 ) ) ;
#369 = VERTEX_POINT ( 'NONE', #371 ) ;
#370 = EDGE_LOOP ( 'NONE', ( #179 ) ) ;
#371 = CARTESIAN_POINT ( 'NONE',  ( 0.1565358449660651796, 0.000000000000000000, -5.465419815590583877E-16 ) ) ;
#372 = CALENDAR_DATE ( 2023, 27, 9 ) ;
#373 = FACE_OUTER_BOUND ( 'NONE', #9, .T. ) ;
#374 = EDGE_LOOP ( 'NONE', ( #317 ) ) ;
#375 = ADVANCED_FACE ( 'NONE', ( #99, #252 ), #77, .T. ) ;
#376 = VERTEX_POINT ( 'NONE', #103 ) ;
#377 = APPROVAL_DATE_TIME ( #261, #82 ) ;
#378 = ORIENTED_EDGE ( 'NONE', *, *, #279, .F. ) ;
#379 = ADVANCED_FACE ( 'NONE', ( #163, #224 ), #340, .T. ) ;
#380 = FACE_OUTER_BOUND ( 'NONE', #210, .T. ) ;
#381 = DIRECTION ( 'NONE',  ( 1.000000000000000000, 0.000000000000000000, -3.473977097097809748E-15 ) ) ;
#382 = DIRECTION ( 'NONE',  ( 3.491481338843133355E-15, -0.000000000000000000, 1.000000000000000000 ) ) ;
#383 = PERSON ( 'UNSPECIFIED', 'UNSPECIFIED', 'UNSPECIFIED', ('UNSPECIFIED'), ('UNSPECIFIED'), ('UNSPECIFIED') ) ;
#384 = CIRCLE ( 'NONE', #223, 0.3549999999999999267 ) ;
#385 = DIRECTION ( 'NONE',  ( 1.000000000000000000, 0.000000000000000000, -3.602642915508840499E-15 ) ) ;
#386 = AXIS2_PLACEMENT_3D ( 'NONE', #64, #194, #160 ) ;
#387 = ADVANCED_FACE ( 'NONE', ( #249, #276 ), #280, .T. ) ;
#388 = DIRECTION ( 'NONE',  ( 3.491481338843133355E-15, -0.000000000000000000, 1.000000000000000000 ) ) ;
#389 = PRODUCT ( '960118', '960118', '', ( #4 ) ) ;
#390 = DIRECTION ( 'NONE',  ( -1.000000000000000000, 0.000000000000000000, 3.512204220727691237E-15 ) ) ;
#391 = ADVANCED_FACE ( 'NONE', ( #315, #206 ), #133, .T. ) ;
#392 = DIRECTION ( 'NONE',  ( 1.000000000000000000, 0.000000000000000000, -3.491481338843133355E-15 ) ) ;
#393 =( GEOMETRIC_REPRESENTATION_CONTEXT ( 3 ) GLOBAL_UNCERTAINTY_ASSIGNED_CONTEXT ( ( #20 ) ) GLOBAL_UNIT_ASSIGNED_CONTEXT ( ( #94, #67, #135 ) ) REPRESENTATION_CONTEXT ( 'NONE', 'WORKASPACE' ) );
#394 = FACE_OUTER_BOUND ( 'NONE', #294, .T. ) ;
#395 = VERTEX_POINT ( 'NONE', #34 ) ;
ENDSEC;
END-ISO-10303-21;
