ISO-10303-21;
HEADER;
FILE_DESCRIPTION (( 'STEP AP203' ),
    '1' );
FILE_NAME ('960117.step',
    '2023-09-27T08:29:45',
    ( '' ),
    ( '' ),
    'SwSTEP 2.0',
    'SolidWorks 2022',
    '' );
FILE_SCHEMA (( 'CONFIG_CONTROL_DESIGN' ));
ENDSEC;

DATA;
#1 = CYLINDRICAL_SURFACE ( 'NONE', #345, 1.499999999999998224 ) ;
#2 = PLANE ( 'NONE',  #66 ) ;
#3 = AXIS2_PLACEMENT_3D ( 'NONE', #363, #90, #149 ) ;
#4 = EDGE_CURVE ( 'NONE', #79, #79, #286, .T. ) ;
#5 = FACE_OUTER_BOUND ( 'NONE', #327, .T. ) ;
#6 = DIRECTION ( 'NONE',  ( -3.491481338843133355E-15, 0.000000000000000000, -1.000000000000000000 ) ) ;
#7 = UNCERTAINTY_MEASURE_WITH_UNIT (LENGTH_MEASURE( 1.000000000000000082E-05 ), #318, 'distance_accuracy_value', 'NONE');
#8 = PERSON_AND_ORGANIZATION_ROLE ( 'creator' ) ;
#9 = AXIS2_PLACEMENT_3D ( 'NONE', #303, #333, #56 ) ;
#10 = AXIS2_PLACEMENT_3D ( 'NONE', #33, #155, #282 ) ;
#11 = EDGE_LOOP ( 'NONE', ( #39 ) ) ;
#12 = ORIENTED_EDGE ( 'NONE', *, *, #283, .F. ) ;
#13 = ORIENTED_EDGE ( 'NONE', *, *, #4, .F. ) ;
#14 = PERSON_AND_ORGANIZATION_ROLE ( 'classification_officer' ) ;
#15 = EDGE_LOOP ( 'NONE', ( #12 ) ) ;
#16 = PERSON_AND_ORGANIZATION_ROLE ( 'creator' ) ;
#17 = EDGE_LOOP ( 'NONE', ( #145 ) ) ;
#18 = FACE_OUTER_BOUND ( 'NONE', #197, .T. ) ;
#19 = ADVANCED_FACE ( 'NONE', ( #390, #237 ), #180, .T. ) ;
#20 = AXIS2_PLACEMENT_3D ( 'NONE', #23, #118, #121 ) ;
#21 = CC_DESIGN_APPROVAL ( #331, ( #207 ) ) ;
#22 = CARTESIAN_POINT ( 'NONE',  ( 8.235772677683193248E-15, 0.000000000000000000, 2.358819045102510170 ) ) ;
#23 = CARTESIAN_POINT ( 'NONE',  ( 1.326762908760390423E-13, 0.000000000000000000, 38.00000000000000000 ) ) ;
#24 = EDGE_CURVE ( 'NONE', #383, #383, #46, .T. ) ;
#25 = DIRECTION ( 'NONE',  ( 3.491481338843133355E-15, -0.000000000000000000, 1.000000000000000000 ) ) ;
#26 = CARTESIAN_POINT ( 'NONE',  ( 2.544794574168631843E-14, 0.000000000000000000, 7.288581341843354267 ) ) ;
#27 = CONICAL_SURFACE ( 'NONE', #243, 0.3199999999999995626, 1.047197551196606513 ) ;
#28 = FACE_OUTER_BOUND ( 'NONE', #264, .T. ) ;
#29 = DIRECTION ( 'NONE',  ( 1.000000000000000000, 0.000000000000000000, -3.491481338843132961E-15 ) ) ;
#30 = DIRECTION ( 'NONE',  ( 1.000000000000000000, 0.000000000000000000, 0.000000000000000000 ) ) ;
#31 = AXIS2_PLACEMENT_3D ( 'NONE', #329, #297, #203 ) ;
#32 = CIRCLE ( 'NONE', #305, 0.3199999999999995626 ) ;
#33 = CARTESIAN_POINT ( 'NONE',  ( 1.316288464743861212E-13, 0.000000000000000000, 37.69999999999999574 ) ) ;
#34 = VERTEX_POINT ( 'NONE', #44 ) ;
#35 = EDGE_CURVE ( 'NONE', #75, #75, #275, .T. ) ;
#36 = DATE_AND_TIME ( #316, #140 ) ;
#37 = EDGE_LOOP ( 'NONE', ( #377 ) ) ;
#38 = CONICAL_SURFACE ( 'NONE', #276, 0.1413822604694582874, 1.047197551196590082 ) ;
#39 = ORIENTED_EDGE ( 'NONE', *, *, #110, .F. ) ;
#40 = CARTESIAN_POINT ( 'NONE',  ( 0.1900961894323340562, 0.000000000000000000, 0.1968749999999984956 ) ) ;
#41 = ORIENTED_EDGE ( 'NONE', *, *, #24, .F. ) ;
#42 = APPROVAL_ROLE ( '' ) ;
#43 = CC_DESIGN_DATE_AND_TIME_ASSIGNMENT ( #36, #128, ( #295 ) ) ;
#44 = CARTESIAN_POINT ( 'NONE',  ( 1.500000000000025313, 0.000000000000000000, 7.288581341843348937 ) ) ;
#45 = ORIENTED_EDGE ( 'NONE', *, *, #289, .T. ) ;
#46 = CIRCLE ( 'NONE', #126, 0.1900961894323329460 ) ;
#47 = ORIENTED_EDGE ( 'NONE', *, *, #289, .F. ) ;
#48 = DIRECTION ( 'NONE',  ( 3.491481338843133355E-15, -0.000000000000000000, 1.000000000000000000 ) ) ;
#49 = DATE_AND_TIME ( #266, #133 ) ;
#50 = PLANE ( 'NONE',  #326 ) ;
#51 = COORDINATED_UNIVERSAL_TIME_OFFSET ( 1, 0, .AHEAD. ) ;
#52 = CONICAL_SURFACE ( 'NONE', #10, 1.499999999999996447, 0.7853981633974501664 ) ;
#53 = FACE_OUTER_BOUND ( 'NONE', #78, .T. ) ;
#54 = EDGE_CURVE ( 'NONE', #130, #130, #151, .T. ) ;
#55 = DIRECTION ( 'NONE',  ( -3.491481338843133355E-15, 0.000000000000000000, -1.000000000000000000 ) ) ;
#56 = DIRECTION ( 'NONE',  ( 1.000000000000000000, 0.000000000000000000, 0.000000000000000000 ) ) ;
#57 = DIRECTION ( 'NONE',  ( 3.491481338843133355E-15, -0.000000000000000000, 1.000000000000000000 ) ) ;
#58 = AXIS2_PLACEMENT_3D ( 'NONE', #114, #171, #141 ) ;
#59 = AXIS2_PLACEMENT_3D ( 'NONE', #257, #162, #262 ) ;
#60 = CARTESIAN_POINT ( 'NONE',  ( 0.1413822604694582874, 0.000000000000000000, -4.936335240725727706E-16 ) ) ;
#61 = MANIFOLD_SOLID_BREP ( 'Corps-Déplacer/Copier1', #242 ) ;
#62 = DIRECTION ( 'NONE',  ( 1.000000000000000000, 0.000000000000000000, -3.472835083742631785E-15 ) ) ;
#63 = DIRECTION ( 'NONE',  ( 3.491481338843133355E-15, -0.000000000000000000, 1.000000000000000000 ) ) ;
#64 = FACE_BOUND ( 'NONE', #161, .T. ) ;
#65 = AXIS2_PLACEMENT_3D ( 'NONE', #361, #25, #169 ) ;
#66 = AXIS2_PLACEMENT_3D ( 'NONE', #146, #277, #220 ) ;
#67 = COORDINATED_UNIVERSAL_TIME_OFFSET ( 1, 0, .AHEAD. ) ;
#68 = ADVANCED_FACE ( 'NONE', ( #388, #244 ), #344, .T. ) ;
#69 = FACE_OUTER_BOUND ( 'NONE', #320, .T. ) ;
#70 = VERTEX_POINT ( 'NONE', #163 ) ;
#71 = ORIENTED_EDGE ( 'NONE', *, *, #283, .T. ) ;
#72 = CARTESIAN_POINT ( 'NONE',  ( 0.1450000000000070677, 0.000000000000000000, 2.099999999999997424 ) ) ;
#73 = DIRECTION ( 'NONE',  ( 3.491481338843133355E-15, -0.000000000000000000, 1.000000000000000000 ) ) ;
#74 = EDGE_LOOP ( 'NONE', ( #322 ) ) ;
#75 = VERTEX_POINT ( 'NONE', #192 ) ;
#76 = EDGE_LOOP ( 'NONE', ( #99 ) ) ;
#77 = CARTESIAN_POINT ( 'NONE',  ( 0.3200000000000007283, 0.000000000000000000, 0.3468750000000022649 ) ) ;
#78 = EDGE_LOOP ( 'NONE', ( #191 ) ) ;
#79 = VERTEX_POINT ( 'NONE', #40 ) ;
#80 = EDGE_LOOP ( 'NONE', ( #259 ) ) ;
#81 = CIRCLE ( 'NONE', #200, 0.1790741737109295129 ) ;
#82 = AXIS2_PLACEMENT_3D ( 'NONE', #214, #63, #123 ) ;
#83 = CARTESIAN_POINT ( 'NONE',  ( 8.235772677683193248E-15, 0.000000000000000000, 2.358819045102510170 ) ) ;
#84 = DIRECTION ( 'NONE',  ( 1.000000000000000000, 0.000000000000000000, -2.421794611735978956E-15 ) ) ;
#85 = DIRECTION ( 'NONE',  ( 1.000000000000000000, 0.000000000000000000, -3.364765362886049685E-15 ) ) ;
#86 = APPROVAL_PERSON_ORGANIZATION ( #292, #372, #108 ) ;
#87 = DIRECTION ( 'NONE',  ( 3.491481338843133355E-15, -0.000000000000000000, 1.000000000000000000 ) ) ;
#88 = PRODUCT ( '960117', '960117', '', ( #218 ) ) ;
#89 = DIRECTION ( 'NONE',  ( 1.000000000000000000, 0.000000000000000000, -2.421794611735978956E-15 ) ) ;
#90 = DIRECTION ( 'NONE',  ( 3.491481338843133355E-15, -0.000000000000000000, 1.000000000000000000 ) ) ;
#91 = FACE_OUTER_BOUND ( 'NONE', #223, .T. ) ;
#92 = CC_DESIGN_APPROVAL ( #222, ( #295 ) ) ;
#93 = CARTESIAN_POINT ( 'NONE',  ( 0.3200000000000003952, 0.000000000000000000, 0.1218749999999993450 ) ) ;
#94 = CARTESIAN_POINT ( 'NONE',  ( 1.211107589411223913E-15, 0.000000000000000000, 0.3468750000000034306 ) ) ;
#95 = FACE_BOUND ( 'NONE', #287, .T. ) ;
#96 = ADVANCED_FACE ( 'NONE', ( #210, #332 ), #138, .T. ) ;
#97 = CYLINDRICAL_SURFACE ( 'NONE', #294, 0.3199999999999995626 ) ;
#98 = DIRECTION ( 'NONE',  ( 1.000000000000000000, 0.000000000000000000, -3.491481338843133355E-15 ) ) ;
#99 = ORIENTED_EDGE ( 'NONE', *, *, #177, .T. ) ;
#100 = PERSON_AND_ORGANIZATION ( #183, #382 ) ;
#101 = CARTESIAN_POINT ( 'NONE',  ( 8.812354511172674229E-32, 0.000000000000000000, 2.523958645613886274E-17 ) ) ;
#102 = EDGE_LOOP ( 'NONE', ( #41 ) ) ;
#103 = ADVANCED_FACE ( 'NONE', ( #234 ), #50, .F. ) ;
#104 = EDGE_LOOP ( 'NONE', ( #380 ) ) ;
#105 =( NAMED_UNIT ( * ) SI_UNIT ( $, .STERADIAN. ) SOLID_ANGLE_UNIT ( ) );
#106 =( GEOMETRIC_REPRESENTATION_CONTEXT ( 3 ) GLOBAL_UNCERTAINTY_ASSIGNED_CONTEXT ( ( #7 ) ) GLOBAL_UNIT_ASSIGNED_CONTEXT ( ( #318, #285, #105 ) ) REPRESENTATION_CONTEXT ( 'NONE', 'WORKASPACE' ) );
#107 = CARTESIAN_POINT ( 'NONE',  ( 0.1900961894323345280, 0.000000000000000000, 0.4499999999999983458 ) ) ;
#108 = APPROVAL_ROLE ( '' ) ;
#109 = ORIENTED_EDGE ( 'NONE', *, *, #124, .F. ) ;
#110 = EDGE_CURVE ( 'NONE', #70, #70, #173, .T. ) ;
#111 = DIRECTION ( 'NONE',  ( -1.000000000000000000, 0.000000000000000000, 3.491481338843133355E-15 ) ) ;
#112 = AXIS2_PLACEMENT_3D ( 'NONE', #356, #178, #300 ) ;
#113 = APPROVAL_PERSON_ORGANIZATION ( #195, #222, #221 ) ;
#114 = CARTESIAN_POINT ( 'NONE',  ( 7.332110811570578468E-15, 0.000000000000000000, 2.099999999999999645 ) ) ;
#115 = PERSON_AND_ORGANIZATION ( #183, #382 ) ;
#116 = FACE_OUTER_BOUND ( 'NONE', #132, .T. ) ;
#117 = CC_DESIGN_PERSON_AND_ORGANIZATION_ASSIGNMENT ( #340, #8, ( #295 ) ) ;
#118 = DIRECTION ( 'NONE',  ( 3.491481338843133355E-15, -0.000000000000000000, 1.000000000000000000 ) ) ;
#119 = DIRECTION ( 'NONE',  ( 1.000000000000000000, 0.000000000000000000, -3.422063879522759591E-15 ) ) ;
#120 = FACE_BOUND ( 'NONE', #137, .T. ) ;
#121 = DIRECTION ( 'NONE',  ( 1.000000000000000000, 0.000000000000000000, 0.000000000000000000 ) ) ;
#122 = CYLINDRICAL_SURFACE ( 'NONE', #174, 0.1900961894323331680 ) ;
#123 = DIRECTION ( 'NONE',  ( 1.000000000000000000, 0.000000000000000000, -5.782411586589388010E-15 ) ) ;
#124 = EDGE_CURVE ( 'NONE', #290, #290, #81, .T. ) ;
#125 = CARTESIAN_POINT ( 'NONE',  ( 7.332110811570572157E-15, 0.000000000000000000, 2.099999999999997868 ) ) ;
#126 = AXIS2_PLACEMENT_3D ( 'NONE', #357, #354, #119 ) ;
#127 = CONICAL_SURFACE ( 'NONE', #355, 0.3199999999999999512, 1.047197551196608067 ) ;
#128 = DATE_TIME_ROLE ( 'creation_date' ) ;
#129 = APPLICATION_PROTOCOL_DEFINITION ( 'international standard', 'config_control_design', 1994, #394 ) ;
#130 = VERTEX_POINT ( 'NONE', #346 ) ;
#131 = ORIENTED_EDGE ( 'NONE', *, *, #54, .F. ) ;
#132 = EDGE_LOOP ( 'NONE', ( #379 ) ) ;
#133 = LOCAL_TIME ( 10, 29, 45.00000000000000000, #268 ) ;
#134 = EDGE_CURVE ( 'NONE', #34, #34, #206, .T. ) ;
#135 = EDGE_LOOP ( 'NONE', ( #47 ) ) ;
#136 = PERSON_AND_ORGANIZATION ( #183, #382 ) ;
#137 = EDGE_LOOP ( 'NONE', ( #131 ) ) ;
#138 = CYLINDRICAL_SURFACE ( 'NONE', #9, 0.3199999999999999512 ) ;
#139 = CIRCLE ( 'NONE', #212, 1.499999999999996447 ) ;
#140 = LOCAL_TIME ( 10, 29, 45.00000000000000000, #157 ) ;
#141 = DIRECTION ( 'NONE',  ( 1.000000000000000000, 0.000000000000000000, -3.491481338843133355E-15 ) ) ;
#142 = PERSON_AND_ORGANIZATION_ROLE ( 'design_supplier' ) ;
#143 = DIRECTION ( 'NONE',  ( 3.491481338843133355E-15, -0.000000000000000000, 1.000000000000000000 ) ) ;
#144 = PRODUCT_DEFINITION_SHAPE ( 'NONE', 'NONE',  #295 ) ;
#145 = ORIENTED_EDGE ( 'NONE', *, *, #134, .T. ) ;
#146 = CARTESIAN_POINT ( 'NONE',  ( 1.571166602479409615E-15, 0.1900961894323329460, 0.4499999999999999001 ) ) ;
#147 = CC_DESIGN_PERSON_AND_ORGANIZATION_ASSIGNMENT ( #378, #374, ( #88 ) ) ;
#148 = CARTESIAN_POINT ( 'NONE',  ( 0.3200000000000003397, 0.000000000000000000, 0.1031250000000014100 ) ) ;
#149 = DIRECTION ( 'NONE',  ( 1.000000000000000000, 0.000000000000000000, -3.472835083742631785E-15 ) ) ;
#150 = CARTESIAN_POINT ( 'NONE',  ( 4.255242881715084554E-16, 0.000000000000000000, 0.1218750000000004552 ) ) ;
#151 = CIRCLE ( 'NONE', #319, 0.1449999999999999345 ) ;
#152 = DIRECTION ( 'NONE',  ( 1.000000000000000000, 0.000000000000000000, -4.625929269271490844E-15 ) ) ;
#153 = VERTEX_POINT ( 'NONE', #77 ) ;
#154 = PRODUCT_RELATED_PRODUCT_CATEGORY ( 'detail', '', ( #88 ) ) ;
#155 = DIRECTION ( 'NONE',  ( -3.491481338843133355E-15, 0.000000000000000000, -1.000000000000000000 ) ) ;
#156 = APPROVAL_DATE_TIME ( #314, #222 ) ;
#157 = COORDINATED_UNIVERSAL_TIME_OFFSET ( 1, 0, .AHEAD. ) ;
#158 = ORIENTED_EDGE ( 'NONE', *, *, #35, .F. ) ;
#159 = CIRCLE ( 'NONE', #227, 0.1413822604694582874 ) ;
#160 = ADVANCED_FACE ( 'NONE', ( #201, #116 ), #302, .T. ) ;
#161 = EDGE_LOOP ( 'NONE', ( #13 ) ) ;
#162 = DIRECTION ( 'NONE',  ( 0.000000000000000000, 0.000000000000000000, 1.000000000000000000 ) ) ;
#163 = CARTESIAN_POINT ( 'NONE',  ( 0.3200000000000006728, 0.000000000000000000, 0.3281249999999973910 ) ) ;
#164 = ORIENTED_EDGE ( 'NONE', *, *, #110, .T. ) ;
#165 = APPROVAL_DATE_TIME ( #49, #331 ) ;
#166 = ORIENTED_EDGE ( 'NONE', *, *, #321, .F. ) ;
#167 = EDGE_LOOP ( 'NONE', ( #261 ) ) ;
#168 = DATE_AND_TIME ( #384, #360 ) ;
#169 = DIRECTION ( 'NONE',  ( 1.000000000000000000, 0.000000000000000000, -3.422063879522752097E-15 ) ) ;
#170 = DATE_TIME_ROLE ( 'classification_date' ) ;
#171 = DIRECTION ( 'NONE',  ( 3.491481338843133355E-15, -0.000000000000000000, 1.000000000000000000 ) ) ;
#172 = ADVANCED_FACE ( 'NONE', ( #18, #270 ), #304, .F. ) ;
#173 = CIRCLE ( 'NONE', #375, 0.3199999999999995626 ) ;
#174 = AXIS2_PLACEMENT_3D ( 'NONE', #252, #334, #30 ) ;
#175 = CYLINDRICAL_SURFACE ( 'NONE', #20, 0.1900961894323333623 ) ;
#176 = CARTESIAN_POINT ( 'NONE',  ( 1.145642314307898202E-15, 0.000000000000000000, 0.3281249999999985567 ) ) ;
#177 = EDGE_CURVE ( 'NONE', #232, #232, #139, .T. ) ;
#178 = DIRECTION ( 'NONE',  ( 3.491481338843133355E-15, -0.000000000000000000, 1.000000000000000000 ) ) ;
#179 = CC_DESIGN_APPROVAL ( #372, ( #265 ) ) ;
#180 = CONICAL_SURFACE ( 'NONE', #219, 0.1900961894323333623, 1.047197551196606513 ) ;
#181 = DIRECTION ( 'NONE',  ( 1.000000000000000000, 0.000000000000000000, -3.491481338843132961E-15 ) ) ;
#182 = CARTESIAN_POINT ( 'NONE',  ( 0.000000000000000000, 0.000000000000000000, 0.000000000000000000 ) ) ;
#183 = PERSON ( 'UNSPECIFIED', 'UNSPECIFIED', 'UNSPECIFIED', ('UNSPECIFIED'), ('UNSPECIFIED'), ('UNSPECIFIED') ) ;
#184 = DIRECTION ( 'NONE',  ( 1.000000000000000000, 0.000000000000000000, -3.422063879522752097E-15 ) ) ;
#185 = CC_DESIGN_DATE_AND_TIME_ASSIGNMENT ( #168, #170, ( #265 ) ) ;
#186 = DIRECTION ( 'NONE',  ( -3.491481338843133355E-15, 0.000000000000000000, -1.000000000000000000 ) ) ;
#187 = LOCAL_TIME ( 10, 29, 45.00000000000000000, #358 ) ;
#188 = CALENDAR_DATE ( 2023, 27, 9 ) ;
#189 = FACE_BOUND ( 'NONE', #267, .T. ) ;
#190 = APPROVAL_STATUS ( 'not_yet_approved' ) ;
#191 = ORIENTED_EDGE ( 'NONE', *, *, #4, .T. ) ;
#192 = CARTESIAN_POINT ( 'NONE',  ( 0.1900961894323342782, 0.000000000000000000, 0.2531249999999992117 ) ) ;
#193 = ORIENTED_EDGE ( 'NONE', *, *, #35, .T. ) ;
#194 = APPROVAL_PERSON_ORGANIZATION ( #100, #331, #42 ) ;
#195 = PERSON_AND_ORGANIZATION ( #183, #382 ) ;
#196 = ADVANCED_FACE ( 'NONE', ( #330, #53 ), #175, .T. ) ;
#197 = EDGE_LOOP ( 'NONE', ( #109 ) ) ;
#198 = APPROVAL_DATE_TIME ( #298, #372 ) ;
#199 = ORIENTED_EDGE ( 'NONE', *, *, #321, .T. ) ;
#200 = AXIS2_PLACEMENT_3D ( 'NONE', #22, #143, #84 ) ;
#201 = FACE_OUTER_BOUND ( 'NONE', #385, .T. ) ;
#202 = SECURITY_CLASSIFICATION_LEVEL ( 'unclassified' ) ;
#203 = DIRECTION ( 'NONE',  ( 1.000000000000000000, 0.000000000000000000, 0.000000000000000000 ) ) ;
#204 = SHAPE_DEFINITION_REPRESENTATION ( #144, #260 ) ;
#205 = DIRECTION ( 'NONE',  ( 1.000000000000000000, 0.000000000000000000, -3.557538378468066157E-15 ) ) ;
#206 = CIRCLE ( 'NONE', #225, 1.500000000000000000 ) ;
#207 = PRODUCT_DEFINITION_FORMATION_WITH_SPECIFIED_SOURCE ( 'ANY', '', #88, .NOT_KNOWN. ) ;
#208 = DIRECTION ( 'NONE',  ( 3.491481338843133355E-15, -0.000000000000000000, 1.000000000000000000 ) ) ;
#209 = EDGE_CURVE ( 'NONE', #376, #376, #366, .T. ) ;
#210 = FACE_OUTER_BOUND ( 'NONE', #37, .T. ) ;
#211 = DIRECTION ( 'NONE',  ( 1.000000000000000000, 0.000000000000000000, 0.000000000000000000 ) ) ;
#212 = AXIS2_PLACEMENT_3D ( 'NONE', #387, #273, #239 ) ;
#213 = AXIS2_PLACEMENT_3D ( 'NONE', #101, #73, #98 ) ;
#214 = CARTESIAN_POINT ( 'NONE',  ( 1.326762908760390423E-13, 0.000000000000000000, 38.00000000000000000 ) ) ;
#215 = VERTEX_POINT ( 'NONE', #395 ) ;
#216 = CARTESIAN_POINT ( 'NONE',  ( 4.255242881715084554E-16, 0.000000000000000000, 0.1218750000000004552 ) ) ;
#217 = FACE_OUTER_BOUND ( 'NONE', #135, .T. ) ;
#218 = MECHANICAL_CONTEXT ( 'NONE', #394, 'mechanical' ) ;
#219 = AXIS2_PLACEMENT_3D ( 'NONE', #274, #299, #240 ) ;
#220 = DIRECTION ( 'NONE',  ( -1.000000000000000000, 0.000000000000000000, 3.491481338843133355E-15 ) ) ;
#221 = APPROVAL_ROLE ( '' ) ;
#222 = APPROVAL ( #190, 'UNSPECIFIED' ) ;
#223 = EDGE_LOOP ( 'NONE', ( #164 ) ) ;
#224 = EDGE_LOOP ( 'NONE', ( #293 ) ) ;
#225 = AXIS2_PLACEMENT_3D ( 'NONE', #26, #48, #389 ) ;
#226 = EDGE_LOOP ( 'NONE', ( #193 ) ) ;
#227 = AXIS2_PLACEMENT_3D ( 'NONE', #336, #308, #29 ) ;
#228 = DIRECTION ( 'NONE',  ( 3.491481338843133355E-15, -0.000000000000000000, 1.000000000000000000 ) ) ;
#229 = ORIENTED_EDGE ( 'NONE', *, *, #311, .F. ) ;
#230 = CC_DESIGN_PERSON_AND_ORGANIZATION_ASSIGNMENT ( #136, #142, ( #207 ) ) ;
#231 = APPROVAL_STATUS ( 'not_yet_approved' ) ;
#232 = VERTEX_POINT ( 'NONE', #284 ) ;
#233 = EDGE_LOOP ( 'NONE', ( #288 ) ) ;
#234 = FACE_OUTER_BOUND ( 'NONE', #352, .T. ) ;
#235 = CIRCLE ( 'NONE', #367, 0.1449999999999997402 ) ;
#236 = ADVANCED_FACE ( 'NONE', ( #369, #315 ), #1, .T. ) ;
#237 = FACE_BOUND ( 'NONE', #226, .T. ) ;
#238 = CALENDAR_DATE ( 2023, 27, 9 ) ;
#239 = DIRECTION ( 'NONE',  ( 1.000000000000000000, 0.000000000000000000, -4.625929269271496366E-15 ) ) ;
#240 = DIRECTION ( 'NONE',  ( 1.000000000000000000, 0.000000000000000000, -3.422063879522752097E-15 ) ) ;
#241 = ADVANCED_FACE ( 'NONE', ( #217, #189 ), #38, .T. ) ;
#242 = CLOSED_SHELL ( 'NONE', ( #391, #241, #96, #324, #196, #19, #307, #249, #279, #253, #160, #172, #68, #236, #362, #103 ) ) ;
#243 = AXIS2_PLACEMENT_3D ( 'NONE', #306, #6, #337 ) ;
#244 = FACE_BOUND ( 'NONE', #80, .T. ) ;
#245 = DIRECTION ( 'NONE',  ( 3.491481338843133355E-15, -0.000000000000000000, 1.000000000000000000 ) ) ;
#246 = FACE_OUTER_BOUND ( 'NONE', #102, .T. ) ;
#247 = VERTEX_POINT ( 'NONE', #368 ) ;
#248 = AXIS2_PLACEMENT_3D ( 'NONE', #216, #280, #62 ) ;
#249 = ADVANCED_FACE ( 'NONE', ( #338, #69 ), #27, .T. ) ;
#250 = DIRECTION ( 'NONE',  ( -1.000000000000000000, 0.000000000000000000, 3.472835083742631785E-15 ) ) ;
#251 = FACE_OUTER_BOUND ( 'NONE', #224, .T. ) ;
#252 = CARTESIAN_POINT ( 'NONE',  ( 1.326762908760390423E-13, 0.000000000000000000, 38.00000000000000000 ) ) ;
#253 = ADVANCED_FACE ( 'NONE', ( #120, #339 ), #2, .F. ) ;
#254 = VERTEX_POINT ( 'NONE', #72 ) ;
#255 = DESIGN_CONTEXT ( 'detailed design', #353, 'design' ) ;
#256 = CIRCLE ( 'NONE', #312, 0.1900961894323333623 ) ;
#257 = CARTESIAN_POINT ( 'NONE',  ( 0.000000000000000000, 0.000000000000000000, 0.000000000000000000 ) ) ;
#258 = DIRECTION ( 'NONE',  ( 1.000000000000000000, 0.000000000000000000, -2.990902544787603621E-15 ) ) ;
#259 = ORIENTED_EDGE ( 'NONE', *, *, #124, .T. ) ;
#260 = ADVANCED_BREP_SHAPE_REPRESENTATION ( '960117', ( #61, #59 ), #106 ) ;
#261 = ORIENTED_EDGE ( 'NONE', *, *, #177, .F. ) ;
#262 = DIRECTION ( 'NONE',  ( 1.000000000000000000, 0.000000000000000000, 0.000000000000000000 ) ) ;
#263 = CC_DESIGN_PERSON_AND_ORGANIZATION_ASSIGNMENT ( #350, #16, ( #207 ) ) ;
#264 = EDGE_LOOP ( 'NONE', ( #71 ) ) ;
#265 = SECURITY_CLASSIFICATION ( '', '', #202 ) ;
#266 = CALENDAR_DATE ( 2023, 27, 9 ) ;
#267 = EDGE_LOOP ( 'NONE', ( #199 ) ) ;
#268 = COORDINATED_UNIVERSAL_TIME_OFFSET ( 1, 0, .AHEAD. ) ;
#269 = CARTESIAN_POINT ( 'NONE',  ( 1.571166602479406657E-15, 0.000000000000000000, 0.4499999999999990119 ) ) ;
#270 = FACE_OUTER_BOUND ( 'NONE', #104, .T. ) ;
#271 = LOCAL_TIME ( 10, 29, 45.00000000000000000, #67 ) ;
#272 = APPROVAL_STATUS ( 'not_yet_approved' ) ;
#273 = DIRECTION ( 'NONE',  ( 3.491481338843133355E-15, -0.000000000000000000, 1.000000000000000000 ) ) ;
#274 = CARTESIAN_POINT ( 'NONE',  ( 8.837812138946677361E-16, 0.000000000000000000, 0.2531249999999998779 ) ) ;
#275 = CIRCLE ( 'NONE', #112, 0.1900961894323333623 ) ;
#276 = AXIS2_PLACEMENT_3D ( 'NONE', #182, #57, #181 ) ;
#277 = DIRECTION ( 'NONE',  ( -3.491481338843133355E-15, 0.000000000000000000, -1.000000000000000000 ) ) ;
#278 = CARTESIAN_POINT ( 'NONE',  ( 1.326762908760390423E-13, 0.000000000000000000, 38.00000000000000000 ) ) ;
#279 = ADVANCED_FACE ( 'NONE', ( #246, #28 ), #122, .T. ) ;
#280 = DIRECTION ( 'NONE',  ( 3.491481338843133355E-15, -0.000000000000000000, 1.000000000000000000 ) ) ;
#281 = DIRECTION ( 'NONE',  ( 3.491481338843133355E-15, -0.000000000000000000, 1.000000000000000000 ) ) ;
#282 = DIRECTION ( 'NONE',  ( -1.000000000000000000, 0.000000000000000000, 4.625929269271496366E-15 ) ) ;
#283 = EDGE_CURVE ( 'NONE', #247, #247, #256, .T. ) ;
#284 = CARTESIAN_POINT ( 'NONE',  ( 1.500000000000127898, 0.000000000000000000, 37.69999999999998863 ) ) ;
#285 =( NAMED_UNIT ( * ) PLANE_ANGLE_UNIT ( ) SI_UNIT ( $, .RADIAN. ) );
#286 = CIRCLE ( 'NONE', #65, 0.1900961894323333623 ) ;
#287 = EDGE_LOOP ( 'NONE', ( #229 ) ) ;
#288 = ORIENTED_EDGE ( 'NONE', *, *, #134, .F. ) ;
#289 = EDGE_CURVE ( 'NONE', #392, #392, #335, .T. ) ;
#290 = VERTEX_POINT ( 'NONE', #348 ) ;
#291 = ORIENTED_EDGE ( 'NONE', *, *, #351, .F. ) ;
#292 = PERSON_AND_ORGANIZATION ( #183, #382 ) ;
#293 = ORIENTED_EDGE ( 'NONE', *, *, #209, .T. ) ;
#294 = AXIS2_PLACEMENT_3D ( 'NONE', #278, #281, #211 ) ;
#295 = PRODUCT_DEFINITION ( 'UNKNOWN', '', #207, #255 ) ;
#296 = EDGE_LOOP ( 'NONE', ( #158 ) ) ;
#297 = DIRECTION ( 'NONE',  ( 3.491481338843133355E-15, -0.000000000000000000, 1.000000000000000000 ) ) ;
#298 = DATE_AND_TIME ( #238, #187 ) ;
#299 = DIRECTION ( 'NONE',  ( 3.491481338843133355E-15, -0.000000000000000000, 1.000000000000000000 ) ) ;
#300 = DIRECTION ( 'NONE',  ( 1.000000000000000000, 0.000000000000000000, -3.422063879522752097E-15 ) ) ;
#301 = CC_DESIGN_PERSON_AND_ORGANIZATION_ASSIGNMENT ( #115, #14, ( #265 ) ) ;
#302 = CYLINDRICAL_SURFACE ( 'NONE', #31, 0.1449999999999998512 ) ;
#303 = CARTESIAN_POINT ( 'NONE',  ( 1.326762908760390423E-13, 0.000000000000000000, 38.00000000000000000 ) ) ;
#304 = TOROIDAL_SURFACE ( 'NONE', #58, 1.144999999999999796, 1.000000000000000000 ) ;
#305 = AXIS2_PLACEMENT_3D ( 'NONE', #94, #371, #309 ) ;
#306 = CARTESIAN_POINT ( 'NONE',  ( 1.211107589411223913E-15, 0.000000000000000000, 0.3468750000000034306 ) ) ;
#307 = ADVANCED_FACE ( 'NONE', ( #5, #91 ), #97, .T. ) ;
#308 = DIRECTION ( 'NONE',  ( 3.491481338843133355E-15, -0.000000000000000000, 1.000000000000000000 ) ) ;
#309 = DIRECTION ( 'NONE',  ( 1.000000000000000000, 0.000000000000000000, -3.557538378468066157E-15 ) ) ;
#310 = AXIS2_PLACEMENT_3D ( 'NONE', #83, #386, #89 ) ;
#311 = EDGE_CURVE ( 'NONE', #215, #215, #328, .T. ) ;
#312 = AXIS2_PLACEMENT_3D ( 'NONE', #365, #245, #184 ) ;
#313 = FACE_OUTER_BOUND ( 'NONE', #76, .T. ) ;
#314 = DATE_AND_TIME ( #188, #271 ) ;
#315 = FACE_OUTER_BOUND ( 'NONE', #17, .T. ) ;
#316 = CALENDAR_DATE ( 2023, 27, 9 ) ;
#317 = ORIENTED_EDGE ( 'NONE', *, *, #311, .T. ) ;
#318 =( LENGTH_UNIT ( ) NAMED_UNIT ( * ) SI_UNIT ( .MILLI., .METRE. ) );
#319 = AXIS2_PLACEMENT_3D ( 'NONE', #269, #87, #85 ) ;
#320 = EDGE_LOOP ( 'NONE', ( #343 ) ) ;
#321 = EDGE_CURVE ( 'NONE', #364, #364, #159, .T. ) ;
#322 = ORIENTED_EDGE ( 'NONE', *, *, #24, .T. ) ;
#323 = FACE_OUTER_BOUND ( 'NONE', #349, .T. ) ;
#324 = ADVANCED_FACE ( 'NONE', ( #64, #251 ), #127, .T. ) ;
#325 = CC_DESIGN_SECURITY_CLASSIFICATION ( #265, ( #207 ) ) ;
#326 = AXIS2_PLACEMENT_3D ( 'NONE', #359, #55, #111 ) ;
#327 = EDGE_LOOP ( 'NONE', ( #291 ) ) ;
#328 = CIRCLE ( 'NONE', #82, 1.199999999999993516 ) ;
#329 = CARTESIAN_POINT ( 'NONE',  ( 1.326762908760390423E-13, 0.000000000000000000, 38.00000000000000000 ) ) ;
#330 = FACE_OUTER_BOUND ( 'NONE', #296, .T. ) ;
#331 = APPROVAL ( #231, 'UNSPECIFIED' ) ;
#332 = FACE_OUTER_BOUND ( 'NONE', #347, .T. ) ;
#333 = DIRECTION ( 'NONE',  ( 3.491481338843133355E-15, -0.000000000000000000, 1.000000000000000000 ) ) ;
#334 = DIRECTION ( 'NONE',  ( 3.491481338843133355E-15, -0.000000000000000000, 1.000000000000000000 ) ) ;
#335 = CIRCLE ( 'NONE', #3, 0.3199999999999999512 ) ;
#336 = CARTESIAN_POINT ( 'NONE',  ( 0.000000000000000000, 0.000000000000000000, 0.000000000000000000 ) ) ;
#337 = DIRECTION ( 'NONE',  ( -1.000000000000000000, 0.000000000000000000, 3.557538378468066157E-15 ) ) ;
#338 = FACE_BOUND ( 'NONE', #15, .T. ) ;
#339 = FACE_OUTER_BOUND ( 'NONE', #74, .T. ) ;
#340 = PERSON_AND_ORGANIZATION ( #183, #382 ) ;
#341 = PLANE ( 'NONE',  #213 ) ;
#342 = ORIENTED_EDGE ( 'NONE', *, *, #370, .F. ) ;
#343 = ORIENTED_EDGE ( 'NONE', *, *, #351, .T. ) ;
#344 = CONICAL_SURFACE ( 'NONE', #310, 0.1790741737109295129, 0.2617993877991427465 ) ;
#345 = AXIS2_PLACEMENT_3D ( 'NONE', #393, #373, #152 ) ;
#346 = CARTESIAN_POINT ( 'NONE',  ( 0.1450000000000015166, 0.000000000000000000, 0.4499999999999985123 ) ) ;
#347 = EDGE_LOOP ( 'NONE', ( #45 ) ) ;
#348 = CARTESIAN_POINT ( 'NONE',  ( 0.1790741737109377563, 0.000000000000000000, 2.358819045102509726 ) ) ;
#349 = EDGE_LOOP ( 'NONE', ( #166 ) ) ;
#350 = PERSON_AND_ORGANIZATION ( #183, #382 ) ;
#351 = EDGE_CURVE ( 'NONE', #153, #153, #32, .T. ) ;
#352 = EDGE_LOOP ( 'NONE', ( #317 ) ) ;
#353 = APPLICATION_CONTEXT ( 'configuration controlled 3d designs of mechanical parts and assemblies' ) ;
#354 = DIRECTION ( 'NONE',  ( 3.491481338843133355E-15, -0.000000000000000000, 1.000000000000000000 ) ) ;
#355 = AXIS2_PLACEMENT_3D ( 'NONE', #150, #186, #250 ) ;
#356 = CARTESIAN_POINT ( 'NONE',  ( 8.837812138946677361E-16, 0.000000000000000000, 0.2531249999999998779 ) ) ;
#357 = CARTESIAN_POINT ( 'NONE',  ( 1.571166602479406657E-15, 0.000000000000000000, 0.4499999999999990119 ) ) ;
#358 = COORDINATED_UNIVERSAL_TIME_OFFSET ( 1, 0, .AHEAD. ) ;
#359 = CARTESIAN_POINT ( 'NONE',  ( 1.326762908760390423E-13, 1.199999999999993516, 38.00000000000000000 ) ) ;
#360 = LOCAL_TIME ( 10, 29, 45.00000000000000000, #51 ) ;
#361 = CARTESIAN_POINT ( 'NONE',  ( 6.873853885847389211E-16, 0.000000000000000000, 0.1968749999999991340 ) ) ;
#362 = ADVANCED_FACE ( 'NONE', ( #95, #313 ), #52, .T. ) ;
#363 = CARTESIAN_POINT ( 'NONE',  ( 3.600590130682069033E-16, 0.000000000000000000, 0.1031250000000025202 ) ) ;
#364 = VERTEX_POINT ( 'NONE', #60 ) ;
#365 = CARTESIAN_POINT ( 'NONE',  ( 1.472968689824454378E-15, 0.000000000000000000, 0.4218750000000021094 ) ) ;
#366 = CIRCLE ( 'NONE', #248, 0.3199999999999999512 ) ;
#367 = AXIS2_PLACEMENT_3D ( 'NONE', #125, #228, #258 ) ;
#368 = CARTESIAN_POINT ( 'NONE',  ( 0.1900961894323348333, 0.000000000000000000, 0.4218750000000014433 ) ) ;
#369 = FACE_OUTER_BOUND ( 'NONE', #167, .T. ) ;
#370 = EDGE_CURVE ( 'NONE', #254, #254, #235, .T. ) ;
#371 = DIRECTION ( 'NONE',  ( 3.491481338843133355E-15, -0.000000000000000000, 1.000000000000000000 ) ) ;
#372 = APPROVAL ( #272, 'UNSPECIFIED' ) ;
#373 = DIRECTION ( 'NONE',  ( 3.491481338843133355E-15, -0.000000000000000000, 1.000000000000000000 ) ) ;
#374 = PERSON_AND_ORGANIZATION_ROLE ( 'design_owner' ) ;
#375 = AXIS2_PLACEMENT_3D ( 'NONE', #176, #208, #205 ) ;
#376 = VERTEX_POINT ( 'NONE', #93 ) ;
#377 = ORIENTED_EDGE ( 'NONE', *, *, #209, .F. ) ;
#378 = PERSON_AND_ORGANIZATION ( #183, #382 ) ;
#379 = ORIENTED_EDGE ( 'NONE', *, *, #54, .T. ) ;
#380 = ORIENTED_EDGE ( 'NONE', *, *, #370, .T. ) ;
#381 = APPLICATION_PROTOCOL_DEFINITION ( 'international standard', 'config_control_design', 1994, #353 ) ;
#382 = ORGANIZATION ( 'UNSPECIFIED', 'UNSPECIFIED', '' ) ;
#383 = VERTEX_POINT ( 'NONE', #107 ) ;
#384 = CALENDAR_DATE ( 2023, 27, 9 ) ;
#385 = EDGE_LOOP ( 'NONE', ( #342 ) ) ;
#386 = DIRECTION ( 'NONE',  ( 3.491481338843133355E-15, -0.000000000000000000, 1.000000000000000000 ) ) ;
#387 = CARTESIAN_POINT ( 'NONE',  ( 1.316288464743861212E-13, 0.000000000000000000, 37.69999999999999574 ) ) ;
#388 = FACE_OUTER_BOUND ( 'NONE', #233, .T. ) ;
#389 = DIRECTION ( 'NONE',  ( 1.000000000000000000, 0.000000000000000000, -3.469446951953614189E-15 ) ) ;
#390 = FACE_OUTER_BOUND ( 'NONE', #11, .T. ) ;
#391 = ADVANCED_FACE ( 'NONE', ( #323 ), #341, .F. ) ;
#392 = VERTEX_POINT ( 'NONE', #148 ) ;
#393 = CARTESIAN_POINT ( 'NONE',  ( 1.326762908760390423E-13, 0.000000000000000000, 38.00000000000000000 ) ) ;
#394 = APPLICATION_CONTEXT ( 'configuration controlled 3d designs of mechanical parts and assemblies' ) ;
#395 = CARTESIAN_POINT ( 'NONE',  ( 1.200000000000126299, 0.000000000000000000, 37.99999999999999289 ) ) ;
ENDSEC;
END-ISO-10303-21;
