ISO-10303-21;
HEADER;
FILE_DESCRIPTION (( 'STEP AP203' ),
    '1' );
FILE_NAME ('960063.step',
    '2023-09-27T05:49:13',
    ( '' ),
    ( '' ),
    'SwSTEP 2.0',
    'SolidWorks 2022',
    '' );
FILE_SCHEMA (( 'CONFIG_CONTROL_DESIGN' ));
ENDSEC;

DATA;
#1 = DIRECTION ( 'NONE',  ( 3.491481338843133355E-15, -0.000000000000000000, 1.000000000000000000 ) ) ;
#2 = PERSON_AND_ORGANIZATION ( #114, #48 ) ;
#3 = DIRECTION ( 'NONE',  ( 3.491481338843133355E-15, -0.000000000000000000, 1.000000000000000000 ) ) ;
#4 = VERTEX_POINT ( 'NONE', #217 ) ;
#5 = FACE_OUTER_BOUND ( 'NONE', #137, .T. ) ;
#6 = EDGE_LOOP ( 'NONE', ( #108 ) ) ;
#7 = CARTESIAN_POINT ( 'NONE',  ( 0.8329274057836310030, 0.000000000000000000, 0.3937499999999953260 ) ) ;
#8 = VERTEX_POINT ( 'NONE', #157 ) ;
#9 = CARTESIAN_POINT ( 'NONE',  ( 1.326762908760390423E-13, 0.000000000000000000, 38.00000000000000000 ) ) ;
#10 =( NAMED_UNIT ( * ) SI_UNIT ( $, .STERADIAN. ) SOLID_ANGLE_UNIT ( ) );
#11 = CARTESIAN_POINT ( 'NONE',  ( 1.883945139084117760E-15, 0.000000000000000000, 0.5395833333333364124 ) ) ;
#12 = ORIENTED_EDGE ( 'NONE', *, *, #355, .T. ) ;
#13 = EDGE_LOOP ( 'NONE', ( #46 ) ) ;
#14 = LOCAL_TIME ( 7, 49, 13.00000000000000000, #248 ) ;
#15 = DIRECTION ( 'NONE',  ( 3.491481338843133355E-15, -0.000000000000000000, 1.000000000000000000 ) ) ;
#16 = APPROVAL ( #213, 'UNSPECIFIED' ) ;
#17 = ORIENTED_EDGE ( 'NONE', *, *, #231, .F. ) ;
#18 = FACE_OUTER_BOUND ( 'NONE', #195, .T. ) ;
#19 = CC_DESIGN_PERSON_AND_ORGANIZATION_ASSIGNMENT ( #370, #304, ( #321 ) ) ;
#20 = LOCAL_TIME ( 7, 49, 13.00000000000000000, #334 ) ;
#21 = EDGE_LOOP ( 'NONE', ( #12 ) ) ;
#22 = DIRECTION ( 'NONE',  ( 1.000000000000000000, 0.000000000000000000, -3.456876491982768081E-15 ) ) ;
#23 = PLANE ( 'NONE',  #125 ) ;
#24 = ADVANCED_FACE ( 'NONE', ( #146, #379 ), #112, .T. ) ;
#25 = AXIS2_PLACEMENT_3D ( 'NONE', #268, #360, #181 ) ;
#26 = CARTESIAN_POINT ( 'NONE',  ( 2.444036937190190588E-15, 0.000000000000000000, 0.6999999999999992895 ) ) ;
#27 = AXIS2_PLACEMENT_3D ( 'NONE', #250, #314, #134 ) ;
#28 = DATE_AND_TIME ( #331, #329 ) ;
#29 = DIRECTION ( 'NONE',  ( 1.000000000000000000, 0.000000000000000000, -6.704245317784761908E-15 ) ) ;
#30 = DIRECTION ( 'NONE',  ( 3.491481338843133355E-15, -0.000000000000000000, 1.000000000000000000 ) ) ;
#31 = AXIS2_PLACEMENT_3D ( 'NONE', #169, #170, #285 ) ;
#32 = EDGE_CURVE ( 'NONE', #155, #155, #70, .T. ) ;
#33 = DIRECTION ( 'NONE',  ( 3.491481338843133355E-15, -0.000000000000000000, 1.000000000000000000 ) ) ;
#34 = SECURITY_CLASSIFICATION_LEVEL ( 'unclassified' ) ;
#35 = PERSON_AND_ORGANIZATION ( #114, #48 ) ;
#36 = CARTESIAN_POINT ( 'NONE',  ( 1.200000000000132294, 0.000000000000000000, 37.99999999999999289 ) ) ;
#37 = CARTESIAN_POINT ( 'NONE',  ( 1.035000000000000586, 0.000000000000000000, 0.1604166666666662078 ) ) ;
#38 = DIRECTION ( 'NONE',  ( 1.000000000000000000, 0.000000000000000000, -3.514527010858496895E-15 ) ) ;
#39 = EDGE_CURVE ( 'NONE', #160, #160, #84, .T. ) ;
#40 = VERTEX_POINT ( 'NONE', #7 ) ;
#41 = DIRECTION ( 'NONE',  ( 3.491481338843133355E-15, -0.000000000000000000, 1.000000000000000000 ) ) ;
#42 = AXIS2_PLACEMENT_3D ( 'NONE', #358, #324, #62 ) ;
#43 = CONICAL_SURFACE ( 'NONE', #132, 1.034999999999999920, 1.047197551196622500 ) ;
#44 = CARTESIAN_POINT ( 'NONE',  ( 1.035000000000000586, 0.000000000000000000, 0.1895833333333296622 ) ) ;
#45 = DIRECTION ( 'NONE',  ( 1.000000000000000000, 0.000000000000000000, 0.000000000000000000 ) ) ;
#46 = ORIENTED_EDGE ( 'NONE', *, *, #39, .F. ) ;
#47 = CIRCLE ( 'NONE', #247, 1.034999999999999920 ) ;
#48 = ORGANIZATION ( 'UNSPECIFIED', 'UNSPECIFIED', '' ) ;
#49 = EDGE_LOOP ( 'NONE', ( #316 ) ) ;
#50 = ORIENTED_EDGE ( 'NONE', *, *, #355, .F. ) ;
#51 = ORIENTED_EDGE ( 'NONE', *, *, #344, .F. ) ;
#52 = ORIENTED_EDGE ( 'NONE', *, *, #197, .T. ) ;
#53 = DIRECTION ( 'NONE',  ( 3.491481338843133355E-15, -0.000000000000000000, 1.000000000000000000 ) ) ;
#54 = DIRECTION ( 'NONE',  ( 1.000000000000000000, 0.000000000000000000, -3.469446951953614189E-15 ) ) ;
#55 = PERSON_AND_ORGANIZATION ( #114, #48 ) ;
#56 = DIRECTION ( 'NONE',  ( -3.491481338843133355E-15, 0.000000000000000000, -1.000000000000000000 ) ) ;
#57 = AXIS2_PLACEMENT_3D ( 'NONE', #9, #252, #45 ) ;
#58 = DATE_AND_TIME ( #60, #115 ) ;
#59 = CARTESIAN_POINT ( 'NONE',  ( 2.115425363140279297E-14, 0.000000000000000000, 6.058819045102511680 ) ) ;
#60 = CALENDAR_DATE ( 2023, 27, 9 ) ;
#61 = ADVANCED_FACE ( 'NONE', ( #18, #205 ), #238, .T. ) ;
#62 = DIRECTION ( 'NONE',  ( 1.000000000000000000, 0.000000000000000000, -6.704245317784761908E-15 ) ) ;
#63 = VERTEX_POINT ( 'NONE', #338 ) ;
#64 = FACE_OUTER_BOUND ( 'NONE', #251, .T. ) ;
#65 = AXIS2_PLACEMENT_3D ( 'NONE', #296, #90, #330 ) ;
#66 = DIRECTION ( 'NONE',  ( 3.491481338843133355E-15, -0.000000000000000000, 1.000000000000000000 ) ) ;
#67 = ADVANCED_FACE ( 'NONE', ( #174, #116 ), #294, .F. ) ;
#68 = EDGE_LOOP ( 'NONE', ( #385 ) ) ;
#69 = FACE_BOUND ( 'NONE', #21, .T. ) ;
#70 = CIRCLE ( 'NONE', #31, 0.8329274057836296707 ) ;
#71 = APPLICATION_PROTOCOL_DEFINITION ( 'international standard', 'config_control_design', 1994, #364 ) ;
#72 = CARTESIAN_POINT ( 'NONE',  ( 1.782110266701180152E-15, 0.000000000000000000, 0.5104166666666659635 ) ) ;
#73 = CONICAL_SURFACE ( 'NONE', #27, 0.8329274057836295597, 1.047197551196596743 ) ;
#74 = APPROVAL ( #208, 'UNSPECIFIED' ) ;
#75 = ORIENTED_EDGE ( 'NONE', *, *, #297, .T. ) ;
#76 = CARTESIAN_POINT ( 'NONE',  ( 1.326762908760390423E-13, 0.000000000000000000, 38.00000000000000000 ) ) ;
#77 = CONICAL_SURFACE ( 'NONE', #204, 0.7940741737109291432, 0.2617993877991424689 ) ;
#78 = EDGE_LOOP ( 'NONE', ( #52 ) ) ;
#79 = CC_DESIGN_PERSON_AND_ORGANIZATION_ASSIGNMENT ( #2, #156, ( #240 ) ) ;
#80 = DESIGN_CONTEXT ( 'detailed design', #81, 'design' ) ;
#81 = APPLICATION_CONTEXT ( 'configuration controlled 3d designs of mechanical parts and assemblies' ) ;
#82 = EDGE_LOOP ( 'NONE', ( #372 ) ) ;
#83 = EDGE_LOOP ( 'NONE', ( #17 ) ) ;
#84 = CIRCLE ( 'NONE', #290, 1.199999999999999734 ) ;
#85 = AXIS2_PLACEMENT_3D ( 'NONE', #98, #243, #223 ) ;
#86 = DIRECTION ( 'NONE',  ( -1.000000000000000000, 0.000000000000000000, 3.491481338843133355E-15 ) ) ;
#87 = DIRECTION ( 'NONE',  ( -3.491481338843133355E-15, 0.000000000000000000, -1.000000000000000000 ) ) ;
#88 = MANIFOLD_SOLID_BREP ( 'Corps-Déplacer/Copier1', #201 ) ;
#89 = PERSON_AND_ORGANIZATION_ROLE ( 'classification_officer' ) ;
#90 = DIRECTION ( 'NONE',  ( 3.491481338843133355E-15, -0.000000000000000000, 1.000000000000000000 ) ) ;
#91 = CIRCLE ( 'NONE', #110, 0.8329274057836295597 ) ;
#92 = ADVANCED_FACE ( 'NONE', ( #326, #361 ), #378, .F. ) ;
#93 = DATE_TIME_ROLE ( 'classification_date' ) ;
#94 = DIRECTION ( 'NONE',  ( -1.000000000000000000, 0.000000000000000000, 3.491481338843133355E-15 ) ) ;
#95 = DATE_AND_TIME ( #368, #20 ) ;
#96 = FACE_OUTER_BOUND ( 'NONE', #318, .T. ) ;
#97 = CC_DESIGN_PERSON_AND_ORGANIZATION_ASSIGNMENT ( #394, #89, ( #343 ) ) ;
#98 = CARTESIAN_POINT ( 'NONE',  ( 0.000000000000000000, 0.000000000000000000, 0.000000000000000000 ) ) ;
#99 = AXIS2_PLACEMENT_3D ( 'NONE', #59, #30, #175 ) ;
#100 = AXIS2_PLACEMENT_3D ( 'NONE', #274, #33, #278 ) ;
#101 = ORIENTED_EDGE ( 'NONE', *, *, #328, .F. ) ;
#102 = CARTESIAN_POINT ( 'NONE',  ( 0.7571501829524913685, 0.000000000000000000, -2.643575734480287622E-15 ) ) ;
#103 = CARTESIAN_POINT ( 'NONE',  ( 1.374770777169477842E-15, 0.000000000000000000, 0.3937499999999982681 ) ) ;
#104 = DIRECTION ( 'NONE',  ( -1.000000000000000000, 0.000000000000000000, 3.456876491982768081E-15 ) ) ;
#105 = DIRECTION ( 'NONE',  ( 3.491481338843133355E-15, -0.000000000000000000, 1.000000000000000000 ) ) ;
#106 = ADVANCED_FACE ( 'NONE', ( #207, #202 ), #282, .T. ) ;
#107 = ORIENTED_EDGE ( 'NONE', *, *, #220, .T. ) ;
#108 = ORIENTED_EDGE ( 'NONE', *, *, #136, .T. ) ;
#109 = ORIENTED_EDGE ( 'NONE', *, *, #231, .T. ) ;
#110 = AXIS2_PLACEMENT_3D ( 'NONE', #103, #189, #183 ) ;
#111 = EDGE_LOOP ( 'NONE', ( #75 ) ) ;
#112 = CYLINDRICAL_SURFACE ( 'NONE', #341, 0.8329274057836295597 ) ;
#113 = DIRECTION ( 'NONE',  ( 1.000000000000000000, 0.000000000000000000, -3.423796334164753688E-15 ) ) ;
#114 = PERSON ( 'UNSPECIFIED', 'UNSPECIFIED', 'UNSPECIFIED', ('UNSPECIFIED'), ('UNSPECIFIED'), ('UNSPECIFIED') ) ;
#115 = LOCAL_TIME ( 7, 49, 13.00000000000000000, #117 ) ;
#116 = FACE_OUTER_BOUND ( 'NONE', #167, .T. ) ;
#117 = COORDINATED_UNIVERSAL_TIME_OFFSET ( 1, 0, .AHEAD. ) ;
#118 = DIRECTION ( 'NONE',  ( 3.491481338843133355E-15, -0.000000000000000000, 1.000000000000000000 ) ) ;
#119 = ADVANCED_FACE ( 'NONE', ( #151, #154 ), #153, .T. ) ;
#120 = CARTESIAN_POINT ( 'NONE',  ( 2.444036937190193349E-15, 0.8329274057836296707, 0.6999999999999999556 ) ) ;
#121 = DATE_AND_TIME ( #373, #14 ) ;
#122 = CC_DESIGN_APPROVAL ( #16, ( #152 ) ) ;
#123 = AXIS2_PLACEMENT_3D ( 'NONE', #179, #1, #29 ) ;
#124 = FACE_OUTER_BOUND ( 'NONE', #349, .T. ) ;
#125 = AXIS2_PLACEMENT_3D ( 'NONE', #149, #118, #310 ) ;
#126 = DIRECTION ( 'NONE',  ( 1.000000000000000000, 0.000000000000000000, -4.625929269271492422E-15 ) ) ;
#127 = DATE_TIME_ROLE ( 'creation_date' ) ;
#128 = CYLINDRICAL_SURFACE ( 'NONE', #277, 1.499999999999997780 ) ;
#129 = EDGE_LOOP ( 'NONE', ( #51 ) ) ;
#130 = VERTEX_POINT ( 'NONE', #184 ) ;
#131 = VERTEX_POINT ( 'NONE', #374 ) ;
#132 = AXIS2_PLACEMENT_3D ( 'NONE', #11, #335, #104 ) ;
#133 =( LENGTH_UNIT ( ) NAMED_UNIT ( * ) SI_UNIT ( .MILLI., .METRE. ) );
#134 = DIRECTION ( 'NONE',  ( 1.000000000000000000, 0.000000000000000000, -3.514527010858496895E-15 ) ) ;
#135 = FACE_OUTER_BOUND ( 'NONE', #347, .T. ) ;
#136 = EDGE_CURVE ( 'NONE', #8, #8, #336, .T. ) ;
#137 = EDGE_LOOP ( 'NONE', ( #386 ) ) ;
#138 = ORIENTED_EDGE ( 'NONE', *, *, #39, .T. ) ;
#139 = AXIS2_PLACEMENT_3D ( 'NONE', #72, #41, #222 ) ;
#140 = DIRECTION ( 'NONE',  ( 1.000000000000000000, 0.000000000000000000, 0.000000000000000000 ) ) ;
#141 = CC_DESIGN_PERSON_AND_ORGANIZATION_ASSIGNMENT ( #244, #206, ( #240 ) ) ;
#142 = CARTESIAN_POINT ( 'NONE',  ( 1.326762908760390423E-13, 0.000000000000000000, 38.00000000000000000 ) ) ;
#143 = EDGE_LOOP ( 'NONE', ( #191 ) ) ;
#144 = AXIS2_PLACEMENT_3D ( 'NONE', #356, #53, #292 ) ;
#145 = AXIS2_PLACEMENT_3D ( 'NONE', #221, #345, #159 ) ;
#146 = FACE_OUTER_BOUND ( 'NONE', #82, .T. ) ;
#147 = CARTESIAN_POINT ( 'NONE',  ( 1.326762908760390423E-13, 1.199999999999999734, 38.00000000000000000 ) ) ;
#148 = CC_DESIGN_PERSON_AND_ORGANIZATION_ASSIGNMENT ( #55, #366, ( #152 ) ) ;
#149 = CARTESIAN_POINT ( 'NONE',  ( 2.063334259564513695E-33, 0.000000000000000000, 5.909624194778535466E-19 ) ) ;
#150 = CARTESIAN_POINT ( 'NONE',  ( 0.7940741737109503484, 0.000000000000000000, 6.058819045102509016 ) ) ;
#151 = FACE_OUTER_BOUND ( 'NONE', #227, .T. ) ;
#152 = PRODUCT_DEFINITION ( 'UNKNOWN', '', #240, #80 ) ;
#153 = CYLINDRICAL_SURFACE ( 'NONE', #42, 1.034999999999999920 ) ;
#154 = FACE_OUTER_BOUND ( 'NONE', #68, .T. ) ;
#155 = VERTEX_POINT ( 'NONE', #305 ) ;
#156 = PERSON_AND_ORGANIZATION_ROLE ( 'design_supplier' ) ;
#157 = CARTESIAN_POINT ( 'NONE',  ( 1.500000000000127232, 0.000000000000000000, 37.69999999999998863 ) ) ;
#158 = APPROVAL ( #325, 'UNSPECIFIED' ) ;
#159 = DIRECTION ( 'NONE',  ( 1.000000000000000000, 0.000000000000000000, 0.000000000000000000 ) ) ;
#160 = VERTEX_POINT ( 'NONE', #36 ) ;
#161 = DIRECTION ( 'NONE',  ( 1.000000000000000000, 0.000000000000000000, -3.483064950255364665E-15 ) ) ;
#162 = AXIS2_PLACEMENT_3D ( 'NONE', #262, #200, #54 ) ;
#163 = EDGE_CURVE ( 'NONE', #131, #131, #193, .T. ) ;
#164 = MECHANICAL_CONTEXT ( 'NONE', #364, 'mechanical' ) ;
#165 = CYLINDRICAL_SURFACE ( 'NONE', #57, 0.7599999999999996758 ) ;
#166 = VERTEX_POINT ( 'NONE', #219 ) ;
#167 = EDGE_LOOP ( 'NONE', ( #198 ) ) ;
#168 = AXIS2_PLACEMENT_3D ( 'NONE', #185, #339, #279 ) ;
#169 = CARTESIAN_POINT ( 'NONE',  ( 2.444036937190190588E-15, 0.000000000000000000, 0.6999999999999992895 ) ) ;
#170 = DIRECTION ( 'NONE',  ( 3.491481338843133355E-15, -0.000000000000000000, 1.000000000000000000 ) ) ;
#171 = ORIENTED_EDGE ( 'NONE', *, *, #136, .F. ) ;
#172 = EDGE_CURVE ( 'NONE', #299, #299, #389, .T. ) ;
#173 = EDGE_LOOP ( 'NONE', ( #228 ) ) ;
#174 = FACE_BOUND ( 'NONE', #246, .T. ) ;
#175 = DIRECTION ( 'NONE',  ( 1.000000000000000000, 0.000000000000000000, -3.276879289254483295E-15 ) ) ;
#176 = COORDINATED_UNIVERSAL_TIME_OFFSET ( 1, 0, .AHEAD. ) ;
#177 = AXIS2_PLACEMENT_3D ( 'NONE', #147, #236, #94 ) ;
#178 = APPROVAL_PERSON_ORGANIZATION ( #35, #16, #273 ) ;
#179 = CARTESIAN_POINT ( 'NONE',  ( 1.326762908760390423E-13, 0.000000000000000000, 38.00000000000000000 ) ) ;
#180 = APPROVAL_ROLE ( '' ) ;
#181 = DIRECTION ( 'NONE',  ( 1.000000000000000000, 0.000000000000000000, 0.000000000000000000 ) ) ;
#182 = COORDINATED_UNIVERSAL_TIME_OFFSET ( 1, 0, .AHEAD. ) ;
#183 = DIRECTION ( 'NONE',  ( 1.000000000000000000, 0.000000000000000000, -3.514527010858496895E-15 ) ) ;
#184 = CARTESIAN_POINT ( 'NONE',  ( 0.8329274057836318912, 0.000000000000000000, 0.6562499999999942268 ) ) ;
#185 = CARTESIAN_POINT ( 'NONE',  ( 1.316288464743861212E-13, 0.000000000000000000, 37.69999999999999574 ) ) ;
#186 = CARTESIAN_POINT ( 'NONE',  ( 2.291284628615796404E-15, 0.000000000000000000, 0.6562499999999971134 ) ) ;
#187 = FACE_OUTER_BOUND ( 'NONE', #226, .T. ) ;
#188 = ADVANCED_FACE ( 'NONE', ( #395, #332 ), #291, .T. ) ;
#189 = DIRECTION ( 'NONE',  ( 3.491481338843133355E-15, -0.000000000000000000, 1.000000000000000000 ) ) ;
#190 = CIRCLE ( 'NONE', #139, 1.034999999999999920 ) ;
#191 = ORIENTED_EDGE ( 'NONE', *, *, #267, .T. ) ;
#192 = ORIENTED_EDGE ( 'NONE', *, *, #297, .F. ) ;
#193 = CIRCLE ( 'NONE', #162, 1.500000000000000000 ) ;
#194 = AXIS2_PLACEMENT_3D ( 'NONE', #367, #66, #161 ) ;
#195 = EDGE_LOOP ( 'NONE', ( #192 ) ) ;
#196 = EDGE_LOOP ( 'NONE', ( #232 ) ) ;
#197 = EDGE_CURVE ( 'NONE', #166, #166, #47, .T. ) ;
#198 = ORIENTED_EDGE ( 'NONE', *, *, #32, .T. ) ;
#199 = DIRECTION ( 'NONE',  ( 3.491481338843133355E-15, -0.000000000000000000, 1.000000000000000000 ) ) ;
#200 = DIRECTION ( 'NONE',  ( 3.491481338843133355E-15, -0.000000000000000000, 1.000000000000000000 ) ) ;
#201 = CLOSED_SHELL ( 'NONE', ( #255, #280, #61, #106, #188, #306, #119, #322, #24, #67, #315, #92, #348, #257, #286, #209 ) ) ;
#202 = FACE_OUTER_BOUND ( 'NONE', #111, .T. ) ;
#203 = DATE_AND_TIME ( #300, #351 ) ;
#204 = AXIS2_PLACEMENT_3D ( 'NONE', #376, #346, #342 ) ;
#205 = FACE_OUTER_BOUND ( 'NONE', #260, .T. ) ;
#206 = PERSON_AND_ORGANIZATION_ROLE ( 'creator' ) ;
#207 = FACE_BOUND ( 'NONE', #129, .T. ) ;
#208 = APPROVAL_STATUS ( 'not_yet_approved' ) ;
#209 = ADVANCED_FACE ( 'NONE', ( #124 ), #241, .F. ) ;
#210 =( NAMED_UNIT ( * ) PLANE_ANGLE_UNIT ( ) SI_UNIT ( $, .RADIAN. ) );
#211 = FACE_OUTER_BOUND ( 'NONE', #83, .T. ) ;
#212 = APPROVAL_DATE_TIME ( #203, #74 ) ;
#213 = APPROVAL_STATUS ( 'not_yet_approved' ) ;
#214 = CC_DESIGN_SECURITY_CLASSIFICATION ( #343, ( #240 ) ) ;
#215 = FACE_BOUND ( 'NONE', #13, .T. ) ;
#216 = EDGE_LOOP ( 'NONE', ( #382 ) ) ;
#217 = CARTESIAN_POINT ( 'NONE',  ( 0.8329274057836307810, 0.000000000000000000, 0.3062499999999980238 ) ) ;
#218 = FACE_OUTER_BOUND ( 'NONE', #6, .T. ) ;
#219 = CARTESIAN_POINT ( 'NONE',  ( 1.035000000000001918, 0.000000000000000000, 0.5395833333333327486 ) ) ;
#220 = EDGE_CURVE ( 'NONE', #224, #224, #350, .T. ) ;
#221 = CARTESIAN_POINT ( 'NONE',  ( 0.000000000000000000, 0.000000000000000000, 0.000000000000000000 ) ) ;
#222 = DIRECTION ( 'NONE',  ( 1.000000000000000000, 0.000000000000000000, -3.456876491982768081E-15 ) ) ;
#223 = DIRECTION ( 'NONE',  ( 1.000000000000000000, 0.000000000000000000, -3.491481338843132961E-15 ) ) ;
#224 = VERTEX_POINT ( 'NONE', #381 ) ;
#225 = CC_DESIGN_APPROVAL ( #158, ( #240 ) ) ;
#226 = EDGE_LOOP ( 'NONE', ( #101 ) ) ;
#227 = EDGE_LOOP ( 'NONE', ( #289 ) ) ;
#228 = ORIENTED_EDGE ( 'NONE', *, *, #172, .F. ) ;
#229 = AXIS2_PLACEMENT_3D ( 'NONE', #245, #3, #272 ) ;
#230 = ORIENTED_EDGE ( 'NONE', *, *, #359, .F. ) ;
#231 = EDGE_CURVE ( 'NONE', #287, #287, #384, .T. ) ;
#232 = ORIENTED_EDGE ( 'NONE', *, *, #172, .T. ) ;
#233 = CARTESIAN_POINT ( 'NONE',  ( 6.619266704890104357E-16, 0.000000000000000000, 0.1895833333333332704 ) ) ;
#234 = CIRCLE ( 'NONE', #229, 0.7571501829524913685 ) ;
#235 = EDGE_CURVE ( 'NONE', #276, #276, #311, .T. ) ;
#236 = DIRECTION ( 'NONE',  ( -3.491481338843133355E-15, 0.000000000000000000, -1.000000000000000000 ) ) ;
#237 = DIRECTION ( 'NONE',  ( -1.000000000000000000, 0.000000000000000000, 3.483064950255364665E-15 ) ) ;
#238 = CYLINDRICAL_SURFACE ( 'NONE', #123, 1.034999999999999920 ) ;
#239 = PERSON_AND_ORGANIZATION ( #114, #48 ) ;
#240 = PRODUCT_DEFINITION_FORMATION_WITH_SPECIFIED_SOURCE ( 'ANY', '', #321, .NOT_KNOWN. ) ;
#241 = PLANE ( 'NONE',  #177 ) ;
#242 = PRODUCT_RELATED_PRODUCT_CATEGORY ( 'detail', '', ( #321 ) ) ;
#243 = DIRECTION ( 'NONE',  ( 3.491481338843133355E-15, -0.000000000000000000, 1.000000000000000000 ) ) ;
#244 = PERSON_AND_ORGANIZATION ( #114, #48 ) ;
#245 = CARTESIAN_POINT ( 'NONE',  ( 0.000000000000000000, 0.000000000000000000, 0.000000000000000000 ) ) ;
#246 = EDGE_LOOP ( 'NONE', ( #284 ) ) ;
#247 = AXIS2_PLACEMENT_3D ( 'NONE', #298, #390, #22 ) ;
#248 = COORDINATED_UNIVERSAL_TIME_OFFSET ( 1, 0, .AHEAD. ) ;
#249 = CIRCLE ( 'NONE', #283, 0.8329274057836295597 ) ;
#250 = CARTESIAN_POINT ( 'NONE',  ( 1.374770777169477842E-15, 0.000000000000000000, 0.3937499999999982681 ) ) ;
#251 = EDGE_LOOP ( 'NONE', ( #171 ) ) ;
#252 = DIRECTION ( 'NONE',  ( 3.491481338843133355E-15, -0.000000000000000000, 1.000000000000000000 ) ) ;
#253 = FACE_BOUND ( 'NONE', #196, .T. ) ;
#254 = EDGE_LOOP ( 'NONE', ( #230 ) ) ;
#255 = ADVANCED_FACE ( 'NONE', ( #393 ), #23, .F. ) ;
#256 = DIRECTION ( 'NONE',  ( 3.491481338843133355E-15, -0.000000000000000000, 1.000000000000000000 ) ) ;
#257 = ADVANCED_FACE ( 'NONE', ( #64, #5 ), #128, .T. ) ;
#258 = ORIENTED_EDGE ( 'NONE', *, *, #163, .F. ) ;
#259 = AXIS2_PLACEMENT_3D ( 'NONE', #388, #264, #113 ) ;
#260 = EDGE_LOOP ( 'NONE', ( #320 ) ) ;
#261 = DIRECTION ( 'NONE',  ( 1.000000000000000000, 0.000000000000000000, -3.423796334164750927E-15 ) ) ;
#262 = CARTESIAN_POINT ( 'NONE',  ( 3.035273945900739245E-14, 0.000000000000000000, 8.693370095188440061 ) ) ;
#263 = APPROVAL_PERSON_ORGANIZATION ( #265, #74, #293 ) ;
#264 = DIRECTION ( 'NONE',  ( 3.491481338843133355E-15, -0.000000000000000000, 1.000000000000000000 ) ) ;
#265 = PERSON_AND_ORGANIZATION ( #114, #48 ) ;
#266 = DIRECTION ( 'NONE',  ( 3.491481338843133355E-15, -0.000000000000000000, 1.000000000000000000 ) ) ;
#267 = EDGE_CURVE ( 'NONE', #312, #312, #234, .T. ) ;
#268 = CARTESIAN_POINT ( 'NONE',  ( 1.326762908760390423E-13, 0.000000000000000000, 38.00000000000000000 ) ) ;
#269 = CIRCLE ( 'NONE', #194, 1.034999999999999920 ) ;
#270 = CARTESIAN_POINT ( 'NONE',  ( 1.326762908760390423E-13, 0.000000000000000000, 38.00000000000000000 ) ) ;
#271 = SHAPE_DEFINITION_REPRESENTATION ( #377, #301 ) ;
#272 = DIRECTION ( 'NONE',  ( 1.000000000000000000, 0.000000000000000000, -3.491481338843132961E-15 ) ) ;
#273 = APPROVAL_ROLE ( '' ) ;
#274 = CARTESIAN_POINT ( 'NONE',  ( 1.069266160020712943E-15, 0.000000000000000000, 0.3062500000000009659 ) ) ;
#275 = AXIS2_PLACEMENT_3D ( 'NONE', #26, #199, #261 ) ;
#276 = VERTEX_POINT ( 'NONE', #37 ) ;
#277 = AXIS2_PLACEMENT_3D ( 'NONE', #270, #105, #126 ) ;
#278 = DIRECTION ( 'NONE',  ( 1.000000000000000000, 0.000000000000000000, -3.514527010858496500E-15 ) ) ;
#279 = DIRECTION ( 'NONE',  ( -1.000000000000000000, 0.000000000000000000, 4.625929269271498733E-15 ) ) ;
#280 = ADVANCED_FACE ( 'NONE', ( #96, #371 ), #303, .T. ) ;
#281 = AXIS2_PLACEMENT_3D ( 'NONE', #233, #56, #237 ) ;
#282 = CONICAL_SURFACE ( 'NONE', #281, 1.034999999999999920, 1.047197551196596521 ) ;
#283 = AXIS2_PLACEMENT_3D ( 'NONE', #186, #302, #38 ) ;
#284 = ORIENTED_EDGE ( 'NONE', *, *, #220, .F. ) ;
#285 = DIRECTION ( 'NONE',  ( 1.000000000000000000, 0.000000000000000000, -3.514527010858496500E-15 ) ) ;
#286 = ADVANCED_FACE ( 'NONE', ( #215, #218 ), #295, .T. ) ;
#287 = VERTEX_POINT ( 'NONE', #333 ) ;
#288 = DIRECTION ( 'NONE',  ( 1.000000000000000000, 0.000000000000000000, -5.782411586589358033E-15 ) ) ;
#289 = ORIENTED_EDGE ( 'NONE', *, *, #197, .F. ) ;
#290 = AXIS2_PLACEMENT_3D ( 'NONE', #142, #256, #288 ) ;
#291 = CYLINDRICAL_SURFACE ( 'NONE', #25, 0.8329274057836295597 ) ;
#292 = DIRECTION ( 'NONE',  ( 1.000000000000000000, 0.000000000000000000, -3.483064950255364665E-15 ) ) ;
#293 = APPROVAL_ROLE ( '' ) ;
#294 = PLANE ( 'NONE',  #327 ) ;
#295 = CONICAL_SURFACE ( 'NONE', #168, 1.499999999999995781, 0.7853981633974389531 ) ;
#296 = CARTESIAN_POINT ( 'NONE',  ( 2.025059176529017031E-14, 0.000000000000000000, 5.799999999999999822 ) ) ;
#297 = EDGE_CURVE ( 'NONE', #309, #309, #269, .T. ) ;
#298 = CARTESIAN_POINT ( 'NONE',  ( 1.883945139084117760E-15, 0.000000000000000000, 0.5395833333333364124 ) ) ;
#299 = VERTEX_POINT ( 'NONE', #150 ) ;
#300 = CALENDAR_DATE ( 2023, 27, 9 ) ;
#301 = ADVANCED_BREP_SHAPE_REPRESENTATION ( '960063', ( #88, #145 ), #313 ) ;
#302 = DIRECTION ( 'NONE',  ( 3.491481338843133355E-15, -0.000000000000000000, 1.000000000000000000 ) ) ;
#303 = CONICAL_SURFACE ( 'NONE', #85, 0.7571501829524913685, 1.047197551196591192 ) ;
#304 = PERSON_AND_ORGANIZATION_ROLE ( 'design_owner' ) ;
#305 = CARTESIAN_POINT ( 'NONE',  ( 0.8329274057836322243, 0.000000000000000000, 0.6999999999999962919 ) ) ;
#306 = ADVANCED_FACE ( 'NONE', ( #187, #69 ), #73, .T. ) ;
#307 = APPLICATION_PROTOCOL_DEFINITION ( 'international standard', 'config_control_design', 1994, #81 ) ;
#308 = FACE_OUTER_BOUND ( 'NONE', #352, .T. ) ;
#309 = VERTEX_POINT ( 'NONE', #44 ) ;
#310 = DIRECTION ( 'NONE',  ( 1.000000000000000000, 0.000000000000000000, -3.491481338843133355E-15 ) ) ;
#311 = CIRCLE ( 'NONE', #144, 1.034999999999999920 ) ;
#312 = VERTEX_POINT ( 'NONE', #102 ) ;
#313 =( GEOMETRIC_REPRESENTATION_CONTEXT ( 3 ) GLOBAL_UNCERTAINTY_ASSIGNED_CONTEXT ( ( #380 ) ) GLOBAL_UNIT_ASSIGNED_CONTEXT ( ( #133, #210, #10 ) ) REPRESENTATION_CONTEXT ( 'NONE', 'WORKASPACE' ) );
#314 = DIRECTION ( 'NONE',  ( 3.491481338843133355E-15, -0.000000000000000000, 1.000000000000000000 ) ) ;
#315 = ADVANCED_FACE ( 'NONE', ( #211, #308 ), #165, .T. ) ;
#316 = ORIENTED_EDGE ( 'NONE', *, *, #344, .T. ) ;
#317 = ORIENTED_EDGE ( 'NONE', *, *, #359, .T. ) ;
#318 = EDGE_LOOP ( 'NONE', ( #353 ) ) ;
#319 = EDGE_LOOP ( 'NONE', ( #50 ) ) ;
#320 = ORIENTED_EDGE ( 'NONE', *, *, #235, .T. ) ;
#321 = PRODUCT ( '960063', '960063', '', ( #164 ) ) ;
#322 = ADVANCED_FACE ( 'NONE', ( #340, #375 ), #43, .T. ) ;
#323 = DIRECTION ( 'NONE',  ( 1.000000000000000000, 0.000000000000000000, -4.625929269271498733E-15 ) ) ;
#324 = DIRECTION ( 'NONE',  ( 3.491481338843133355E-15, -0.000000000000000000, 1.000000000000000000 ) ) ;
#325 = APPROVAL_STATUS ( 'not_yet_approved' ) ;
#326 = FACE_OUTER_BOUND ( 'NONE', #173, .T. ) ;
#327 = AXIS2_PLACEMENT_3D ( 'NONE', #120, #87, #86 ) ;
#328 = EDGE_CURVE ( 'NONE', #63, #63, #190, .T. ) ;
#329 = LOCAL_TIME ( 7, 49, 13.00000000000000000, #176 ) ;
#330 = DIRECTION ( 'NONE',  ( 1.000000000000000000, 0.000000000000000000, -3.491481338843133355E-15 ) ) ;
#331 = CALENDAR_DATE ( 2023, 27, 9 ) ;
#332 = FACE_OUTER_BOUND ( 'NONE', #49, .T. ) ;
#333 = CARTESIAN_POINT ( 'NONE',  ( 0.7600000000000196598, 0.000000000000000000, 5.799999999999997158 ) ) ;
#334 = COORDINATED_UNIVERSAL_TIME_OFFSET ( 1, 0, .AHEAD. ) ;
#335 = DIRECTION ( 'NONE',  ( -3.491481338843133355E-15, 0.000000000000000000, -1.000000000000000000 ) ) ;
#336 = CIRCLE ( 'NONE', #362, 1.499999999999995781 ) ;
#337 = CC_DESIGN_APPROVAL ( #74, ( #343 ) ) ;
#338 = CARTESIAN_POINT ( 'NONE',  ( 1.035000000000001696, 0.000000000000000000, 0.5104166666666624108 ) ) ;
#339 = DIRECTION ( 'NONE',  ( -3.491481338843133355E-15, 0.000000000000000000, -1.000000000000000000 ) ) ;
#340 = FACE_BOUND ( 'NONE', #254, .T. ) ;
#341 = AXIS2_PLACEMENT_3D ( 'NONE', #76, #15, #140 ) ;
#342 = DIRECTION ( 'NONE',  ( 1.000000000000000000, 0.000000000000000000, -3.276879289254483295E-15 ) ) ;
#343 = SECURITY_CLASSIFICATION ( '', '', #34 ) ;
#344 = EDGE_CURVE ( 'NONE', #4, #4, #357, .T. ) ;
#345 = DIRECTION ( 'NONE',  ( 0.000000000000000000, 0.000000000000000000, 1.000000000000000000 ) ) ;
#346 = DIRECTION ( 'NONE',  ( 3.491481338843133355E-15, -0.000000000000000000, 1.000000000000000000 ) ) ;
#347 = EDGE_LOOP ( 'NONE', ( #258 ) ) ;
#348 = ADVANCED_FACE ( 'NONE', ( #135, #253 ), #77, .T. ) ;
#349 = EDGE_LOOP ( 'NONE', ( #138 ) ) ;
#350 = CIRCLE ( 'NONE', #275, 0.7600000000000000089 ) ;
#351 = LOCAL_TIME ( 7, 49, 13.00000000000000000, #182 ) ;
#352 = EDGE_LOOP ( 'NONE', ( #107 ) ) ;
#353 = ORIENTED_EDGE ( 'NONE', *, *, #235, .F. ) ;
#354 = EDGE_LOOP ( 'NONE', ( #109 ) ) ;
#355 = EDGE_CURVE ( 'NONE', #40, #40, #91, .T. ) ;
#356 = CARTESIAN_POINT ( 'NONE',  ( 5.600917981060968883E-16, 0.000000000000000000, 0.1604166666666698160 ) ) ;
#357 = CIRCLE ( 'NONE', #100, 0.8329274057836296707 ) ;
#358 = CARTESIAN_POINT ( 'NONE',  ( 1.326762908760390423E-13, 0.000000000000000000, 38.00000000000000000 ) ) ;
#359 = EDGE_CURVE ( 'NONE', #130, #130, #249, .T. ) ;
#360 = DIRECTION ( 'NONE',  ( 3.491481338843133355E-15, -0.000000000000000000, 1.000000000000000000 ) ) ;
#361 = FACE_OUTER_BOUND ( 'NONE', #354, .T. ) ;
#362 = AXIS2_PLACEMENT_3D ( 'NONE', #365, #266, #323 ) ;
#363 = APPROVAL_DATE_TIME ( #121, #16 ) ;
#364 = APPLICATION_CONTEXT ( 'configuration controlled 3d designs of mechanical parts and assemblies' ) ;
#365 = CARTESIAN_POINT ( 'NONE',  ( 1.316288464743861212E-13, 0.000000000000000000, 37.69999999999999574 ) ) ;
#366 = PERSON_AND_ORGANIZATION_ROLE ( 'creator' ) ;
#367 = CARTESIAN_POINT ( 'NONE',  ( 6.619266704890104357E-16, 0.000000000000000000, 0.1895833333333332704 ) ) ;
#368 = CALENDAR_DATE ( 2023, 27, 9 ) ;
#369 = CC_DESIGN_DATE_AND_TIME_ASSIGNMENT ( #95, #127, ( #152 ) ) ;
#370 = PERSON_AND_ORGANIZATION ( #114, #48 ) ;
#371 = FACE_BOUND ( 'NONE', #143, .T. ) ;
#372 = ORIENTED_EDGE ( 'NONE', *, *, #32, .F. ) ;
#373 = CALENDAR_DATE ( 2023, 27, 9 ) ;
#374 = CARTESIAN_POINT ( 'NONE',  ( 1.500000000000030420, 0.000000000000000000, 8.693370095188434732 ) ) ;
#375 = FACE_OUTER_BOUND ( 'NONE', #78, .T. ) ;
#376 = CARTESIAN_POINT ( 'NONE',  ( 2.115425363140279297E-14, 0.000000000000000000, 6.058819045102511680 ) ) ;
#377 = PRODUCT_DEFINITION_SHAPE ( 'NONE', 'NONE',  #152 ) ;
#378 = TOROIDAL_SURFACE ( 'NONE', #65, 1.759999999999999343, 1.000000000000000000 ) ;
#379 = FACE_OUTER_BOUND ( 'NONE', #383, .T. ) ;
#380 = UNCERTAINTY_MEASURE_WITH_UNIT (LENGTH_MEASURE( 1.000000000000000082E-05 ), #133, 'distance_accuracy_value', 'NONE');
#381 = CARTESIAN_POINT ( 'NONE',  ( 0.7600000000000025624, 0.000000000000000000, 0.6999999999999966249 ) ) ;
#382 = ORIENTED_EDGE ( 'NONE', *, *, #267, .F. ) ;
#383 = EDGE_LOOP ( 'NONE', ( #317 ) ) ;
#384 = CIRCLE ( 'NONE', #259, 0.7599999999999993427 ) ;
#385 = ORIENTED_EDGE ( 'NONE', *, *, #328, .T. ) ;
#386 = ORIENTED_EDGE ( 'NONE', *, *, #163, .T. ) ;
#387 = CC_DESIGN_DATE_AND_TIME_ASSIGNMENT ( #58, #93, ( #343 ) ) ;
#388 = CARTESIAN_POINT ( 'NONE',  ( 2.025059176529017031E-14, 0.000000000000000000, 5.799999999999999822 ) ) ;
#389 = CIRCLE ( 'NONE', #99, 0.7940741737109291432 ) ;
#390 = DIRECTION ( 'NONE',  ( 3.491481338843133355E-15, -0.000000000000000000, 1.000000000000000000 ) ) ;
#391 = APPROVAL_PERSON_ORGANIZATION ( #239, #158, #180 ) ;
#392 = APPROVAL_DATE_TIME ( #28, #158 ) ;
#393 = FACE_OUTER_BOUND ( 'NONE', #216, .T. ) ;
#394 = PERSON_AND_ORGANIZATION ( #114, #48 ) ;
#395 = FACE_OUTER_BOUND ( 'NONE', #319, .T. ) ;
ENDSEC;
END-ISO-10303-21;
