ISO-10303-21;
HEADER;
FILE_DESCRIPTION (( 'STEP AP203' ),
    '1' );
FILE_NAME ('960062.step',
    '2023-09-27T05:49:12',
    ( '' ),
    ( '' ),
    'SwSTEP 2.0',
    'SolidWorks 2022',
    '' );
FILE_SCHEMA (( 'CONFIG_CONTROL_DESIGN' ));
ENDSEC;

DATA;
#1 = FACE_BOUND ( 'NONE', #67, .T. ) ;
#2 = ADVANCED_FACE ( 'NONE', ( #5, #332 ), #222, .T. ) ;
#3 = AXIS2_PLACEMENT_3D ( 'NONE', #381, #107, #114 ) ;
#4 = DIRECTION ( 'NONE',  ( -3.491481338843133355E-15, 0.000000000000000000, -1.000000000000000000 ) ) ;
#5 = FACE_OUTER_BOUND ( 'NONE', #115, .T. ) ;
#6 = CALENDAR_DATE ( 2023, 27, 9 ) ;
#7 = CIRCLE ( 'NONE', #17, 0.8949999999999995737 ) ;
#8 = PERSON_AND_ORGANIZATION ( #266, #145 ) ;
#9 = PERSON_AND_ORGANIZATION_ROLE ( 'creator' ) ;
#10 = CYLINDRICAL_SURFACE ( 'NONE', #98, 0.9456624327025927590 ) ;
#11 = APPROVAL_STATUS ( 'not_yet_approved' ) ;
#12 = CARTESIAN_POINT ( 'NONE',  ( 1.326762908760390423E-13, 0.000000000000000000, 38.00000000000000000 ) ) ;
#13 = CC_DESIGN_PERSON_AND_ORGANIZATION_ASSIGNMENT ( #341, #374, ( #113 ) ) ;
#14 = CIRCLE ( 'NONE', #236, 1.090000000000000080 ) ;
#15 = APPROVAL_DATE_TIME ( #306, #85 ) ;
#16 = AXIS2_PLACEMENT_3D ( 'NONE', #71, #310, #343 ) ;
#17 = AXIS2_PLACEMENT_3D ( 'NONE', #110, #24, #205 ) ;
#18 = DIRECTION ( 'NONE',  ( 3.491481338843133355E-15, -0.000000000000000000, 1.000000000000000000 ) ) ;
#19 = CARTESIAN_POINT ( 'NONE',  ( 9.819791265496200149E-16, 0.000000000000000000, 0.2812499999999967804 ) ) ;
#20 = DIRECTION ( 'NONE',  ( 1.000000000000000000, 0.000000000000000000, -3.496825623737947255E-15 ) ) ;
#21 = DIRECTION ( 'NONE',  ( 3.491481338843133355E-15, -0.000000000000000000, 1.000000000000000000 ) ) ;
#22 = DIRECTION ( 'NONE',  ( 3.491481338843133355E-15, -0.000000000000000000, 1.000000000000000000 ) ) ;
#23 = ORIENTED_EDGE ( 'NONE', *, *, #40, .T. ) ;
#24 = DIRECTION ( 'NONE',  ( 3.491481338843133355E-15, -0.000000000000000000, 1.000000000000000000 ) ) ;
#25 = ADVANCED_FACE ( 'NONE', ( #93, #90 ), #128, .F. ) ;
#26 = VERTEX_POINT ( 'NONE', #384 ) ;
#27 = ORIENTED_EDGE ( 'NONE', *, *, #73, .T. ) ;
#28 = APPROVAL_PERSON_ORGANIZATION ( #371, #175, #160 ) ;
#29 = DIRECTION ( 'NONE',  ( 3.491481338843133355E-15, -0.000000000000000000, 1.000000000000000000 ) ) ;
#30 = DIRECTION ( 'NONE',  ( 3.491481338843133355E-15, -0.000000000000000000, 1.000000000000000000 ) ) ;
#31 = EDGE_LOOP ( 'NONE', ( #304 ) ) ;
#32 = EDGE_CURVE ( 'NONE', #377, #377, #302, .T. ) ;
#33 = DATE_AND_TIME ( #305, #362 ) ;
#34 = CARTESIAN_POINT ( 'NONE',  ( 0.8950000000000197797, 0.000000000000000000, 5.799999999999996270 ) ) ;
#35 = COORDINATED_UNIVERSAL_TIME_OFFSET ( 1, 0, .AHEAD. ) ;
#36 = AXIS2_PLACEMENT_3D ( 'NONE', #393, #117, #360 ) ;
#37 = AXIS2_PLACEMENT_3D ( 'NONE', #142, #352, #262 ) ;
#38 = SECURITY_CLASSIFICATION_LEVEL ( 'unclassified' ) ;
#39 = PERSON_AND_ORGANIZATION ( #266, #145 ) ;
#40 = EDGE_CURVE ( 'NONE', #105, #105, #133, .T. ) ;
#41 = CARTESIAN_POINT ( 'NONE',  ( 4.728047646350040591E-16, 0.000000000000000000, 0.1354166666666656305 ) ) ;
#42 = DATE_AND_TIME ( #312, #386 ) ;
#43 = DIRECTION ( 'NONE',  ( 3.491481338843133355E-15, -0.000000000000000000, 1.000000000000000000 ) ) ;
#44 = DIRECTION ( 'NONE',  ( 3.491481338843133355E-15, -0.000000000000000000, 1.000000000000000000 ) ) ;
#45 = AXIS2_PLACEMENT_3D ( 'NONE', #325, #345, #137 ) ;
#46 = CARTESIAN_POINT ( 'NONE',  ( 1.345675099345788088E-15, 0.000000000000000000, 0.3854166666666658525 ) ) ;
#47 = DIRECTION ( 'NONE',  ( 3.491481338843133355E-15, -0.000000000000000000, 1.000000000000000000 ) ) ;
#48 = PLANE ( 'NONE',  #375 ) ;
#49 = APPROVAL ( #11, 'UNSPECIFIED' ) ;
#50 = FACE_OUTER_BOUND ( 'NONE', #152, .T. ) ;
#51 = ORIENTED_EDGE ( 'NONE', *, *, #240, .T. ) ;
#52 = DIRECTION ( 'NONE',  ( 1.000000000000000000, 0.000000000000000000, -6.365957710006631387E-15 ) ) ;
#53 = CARTESIAN_POINT ( 'NONE',  ( 9.819791265496200149E-16, 0.000000000000000000, 0.2812499999999967804 ) ) ;
#54 = CARTESIAN_POINT ( 'NONE',  ( 0.9290741737109504683, 0.000000000000000000, 6.058819045102508127 ) ) ;
#55 = APPLICATION_CONTEXT ( 'configuration controlled 3d designs of mechanical parts and assemblies' ) ;
#56 = CARTESIAN_POINT ( 'NONE',  ( 4.000655700757801179E-16, 0.000000000000000000, 0.1145833333333345916 ) ) ;
#57 = CARTESIAN_POINT ( 'NONE',  ( 0.9456624327025943133, 0.000000000000000000, 0.4999999999999971689 ) ) ;
#58 = ORIENTED_EDGE ( 'NONE', *, *, #334, .T. ) ;
#59 = CC_DESIGN_DATE_AND_TIME_ASSIGNMENT ( #42, #163, ( #324 ) ) ;
#60 = EDGE_LOOP ( 'NONE', ( #246 ) ) ;
#61 = DIRECTION ( 'NONE',  ( 3.491481338843133355E-15, -0.000000000000000000, 1.000000000000000000 ) ) ;
#62 = CARTESIAN_POINT ( 'NONE',  ( 1.500000000000127232, 0.000000000000000000, 37.69999999999998863 ) ) ;
#63 = ORIENTED_EDGE ( 'NONE', *, *, #391, .F. ) ;
#64 = ADVANCED_FACE ( 'NONE', ( #1, #155 ), #241, .T. ) ;
#65 = CIRCLE ( 'NONE', #336, 1.090000000000000080 ) ;
#66 = CIRCLE ( 'NONE', #350, 1.499999999999995781 ) ;
#67 = EDGE_LOOP ( 'NONE', ( #119 ) ) ;
#68 = VERTEX_POINT ( 'NONE', #34 ) ;
#69 = CALENDAR_DATE ( 2023, 27, 9 ) ;
#70 = CARTESIAN_POINT ( 'NONE',  ( 1.090000000000000524, 0.000000000000000000, 0.1145833333333307891 ) ) ;
#71 = CARTESIAN_POINT ( 'NONE',  ( -7.068160831933489620E-33, 0.000000000000000000, -2.024401721211963499E-18 ) ) ;
#72 = DATE_AND_TIME ( #99, #116 ) ;
#73 = EDGE_CURVE ( 'NONE', #229, #229, #14, .T. ) ;
#74 = APPROVAL_ROLE ( '' ) ;
#75 = FACE_OUTER_BOUND ( 'NONE', #263, .T. ) ;
#76 = FACE_BOUND ( 'NONE', #337, .T. ) ;
#77 = DIRECTION ( 'NONE',  ( -1.000000000000000000, 0.000000000000000000, 3.481383122659876478E-15 ) ) ;
#78 = AXIS2_PLACEMENT_3D ( 'NONE', #41, #282, #77 ) ;
#79 = CC_DESIGN_APPROVAL ( #175, ( #233 ) ) ;
#80 = PLANE ( 'NONE',  #250 ) ;
#81 = FACE_OUTER_BOUND ( 'NONE', #96, .T. ) ;
#82 =( LENGTH_UNIT ( ) NAMED_UNIT ( * ) SI_UNIT ( .MILLI., .METRE. ) );
#83 = CARTESIAN_POINT ( 'NONE',  ( 1.316288464743861212E-13, 0.000000000000000000, 37.69999999999999574 ) ) ;
#84 = DIRECTION ( 'NONE',  ( 3.491481338843133355E-15, -0.000000000000000000, 1.000000000000000000 ) ) ;
#85 = APPROVAL ( #256, 'UNSPECIFIED' ) ;
#86 = CARTESIAN_POINT ( 'NONE',  ( 1.090000000000000524, 0.000000000000000000, 0.1354166666666618279 ) ) ;
#87 = AXIS2_PLACEMENT_3D ( 'NONE', #19, #255, #260 ) ;
#88 = PRODUCT_DEFINITION_SHAPE ( 'NONE', 'NONE',  #324 ) ;
#89 = VERTEX_POINT ( 'NONE', #57 ) ;
#90 = FACE_OUTER_BOUND ( 'NONE', #366, .T. ) ;
#91 = CC_DESIGN_DATE_AND_TIME_ASSIGNMENT ( #33, #191, ( #233 ) ) ;
#92 = AXIS2_PLACEMENT_3D ( 'NONE', #328, #61, #181 ) ;
#93 = FACE_OUTER_BOUND ( 'NONE', #215, .T. ) ;
#94 = EDGE_LOOP ( 'NONE', ( #150 ) ) ;
#95 = ADVANCED_FACE ( 'NONE', ( #174, #196 ), #318, .T. ) ;
#96 = EDGE_LOOP ( 'NONE', ( #300 ) ) ;
#97 = ORIENTED_EDGE ( 'NONE', *, *, #184, .F. ) ;
#98 = AXIS2_PLACEMENT_3D ( 'NONE', #288, #21, #232 ) ;
#99 = CALENDAR_DATE ( 2023, 27, 9 ) ;
#100 = FACE_BOUND ( 'NONE', #124, .T. ) ;
#101 = AXIS2_PLACEMENT_3D ( 'NONE', #388, #231, #235 ) ;
#102 = APPROVAL_DATE_TIME ( #72, #49 ) ;
#103 = CARTESIAN_POINT ( 'NONE',  ( 1.200000000000132294, 0.000000000000000000, 37.99999999999999289 ) ) ;
#104 = DIRECTION ( 'NONE',  ( 3.491481338843133355E-15, -0.000000000000000000, 1.000000000000000000 ) ) ;
#105 = VERTEX_POINT ( 'NONE', #226 ) ;
#106 = CARTESIAN_POINT ( 'NONE',  ( 1.326762908760390423E-13, 0.000000000000000000, 38.00000000000000000 ) ) ;
#107 = DIRECTION ( 'NONE',  ( 3.491481338843133355E-15, -0.000000000000000000, 1.000000000000000000 ) ) ;
#108 = ORIENTED_EDGE ( 'NONE', *, *, #314, .F. ) ;
#109 = FACE_OUTER_BOUND ( 'NONE', #244, .T. ) ;
#110 = CARTESIAN_POINT ( 'NONE',  ( 2.025059176529017031E-14, 0.000000000000000000, 5.799999999999999822 ) ) ;
#111 = DIRECTION ( 'NONE',  ( 3.491481338843133355E-15, -0.000000000000000000, 1.000000000000000000 ) ) ;
#112 = EDGE_LOOP ( 'NONE', ( #97 ) ) ;
#113 = PRODUCT ( '960062', '960062', '', ( #280 ) ) ;
#114 = DIRECTION ( 'NONE',  ( 1.000000000000000000, 0.000000000000000000, -4.625929269271492422E-15 ) ) ;
#115 = EDGE_LOOP ( 'NONE', ( #239 ) ) ;
#116 = LOCAL_TIME ( 7, 49, 12.00000000000000000, #220 ) ;
#117 = DIRECTION ( 'NONE',  ( 3.491481338843133355E-15, -0.000000000000000000, 1.000000000000000000 ) ) ;
#118 = ADVANCED_FACE ( 'NONE', ( #209 ), #297, .F. ) ;
#119 = ORIENTED_EDGE ( 'NONE', *, *, #299, .F. ) ;
#120 = VERTEX_POINT ( 'NONE', #86 ) ;
#121 = ORIENTED_EDGE ( 'NONE', *, *, #364, .T. ) ;
#122 = CIRCLE ( 'NONE', #342, 1.090000000000000080 ) ;
#123 = VERTEX_POINT ( 'NONE', #62 ) ;
#124 = EDGE_LOOP ( 'NONE', ( #216 ) ) ;
#125 = PRODUCT_RELATED_PRODUCT_CATEGORY ( 'detail', '', ( #113 ) ) ;
#126 = ORIENTED_EDGE ( 'NONE', *, *, #225, .T. ) ;
#127 = DATE_AND_TIME ( #6, #243 ) ;
#128 = TOROIDAL_SURFACE ( 'NONE', #92, 1.894999999999999574, 1.000000000000000000 ) ;
#129 = AXIS2_PLACEMENT_3D ( 'NONE', #197, #385, #20 ) ;
#130 = DIRECTION ( 'NONE',  ( 1.000000000000000000, 0.000000000000000000, 0.000000000000000000 ) ) ;
#131 = FACE_OUTER_BOUND ( 'NONE', #148, .T. ) ;
#132 = DIRECTION ( 'NONE',  ( 3.491481338843133355E-15, -0.000000000000000000, 1.000000000000000000 ) ) ;
#133 = CIRCLE ( 'NONE', #154, 1.090000000000000080 ) ;
#134 = CONICAL_SURFACE ( 'NONE', #87, 0.9456624327025927590, 1.047197551196575871 ) ;
#135 = ADVANCED_FACE ( 'NONE', ( #81, #202 ), #311, .T. ) ;
#136 =( NAMED_UNIT ( * ) SI_UNIT ( $, .STERADIAN. ) SOLID_ANGLE_UNIT ( ) );
#137 = DIRECTION ( 'NONE',  ( 1.000000000000000000, 0.000000000000000000, 0.000000000000000000 ) ) ;
#138 = FACE_OUTER_BOUND ( 'NONE', #395, .T. ) ;
#139 = CARTESIAN_POINT ( 'NONE',  ( 0.000000000000000000, 0.000000000000000000, 0.000000000000000000 ) ) ;
#140 = ORIENTED_EDGE ( 'NONE', *, *, #32, .T. ) ;
#141 = FACE_BOUND ( 'NONE', #94, .T. ) ;
#142 = CARTESIAN_POINT ( 'NONE',  ( 7.637615428719239830E-16, 0.000000000000000000, 0.2187499999999967248 ) ) ;
#143 = EDGE_LOOP ( 'NONE', ( #51 ) ) ;
#144 = AXIS2_PLACEMENT_3D ( 'NONE', #214, #111, #293 ) ;
#145 = ORGANIZATION ( 'UNSPECIFIED', 'UNSPECIFIED', '' ) ;
#146 = FACE_OUTER_BOUND ( 'NONE', #143, .T. ) ;
#147 = ADVANCED_FACE ( 'NONE', ( #230, #109 ), #48, .F. ) ;
#148 = EDGE_LOOP ( 'NONE', ( #108 ) ) ;
#149 = CIRCLE ( 'NONE', #129, 0.9456624327025927590 ) ;
#150 = ORIENTED_EDGE ( 'NONE', *, *, #334, .F. ) ;
#151 = VERTEX_POINT ( 'NONE', #245 ) ;
#152 = EDGE_LOOP ( 'NONE', ( #23 ) ) ;
#153 = CARTESIAN_POINT ( 'NONE',  ( 1.272935904786564295E-15, 0.000000000000000000, 0.3645833333333348136 ) ) ;
#154 = AXIS2_PLACEMENT_3D ( 'NONE', #153, #30, #183 ) ;
#155 = FACE_OUTER_BOUND ( 'NONE', #265, .T. ) ;
#156 = CIRCLE ( 'NONE', #303, 1.500000000000000000 ) ;
#157 = ADVANCED_FACE ( 'NONE', ( #141, #348 ), #198, .T. ) ;
#158 = CARTESIAN_POINT ( 'NONE',  ( 0.9456624327025943133, 0.000000000000000000, 0.4687499999999936162 ) ) ;
#159 = ORIENTED_EDGE ( 'NONE', *, *, #314, .T. ) ;
#160 = APPROVAL_ROLE ( '' ) ;
#161 = PERSON_AND_ORGANIZATION ( #266, #145 ) ;
#162 = ADVANCED_FACE ( 'NONE', ( #315, #100 ), #134, .T. ) ;
#163 = DATE_TIME_ROLE ( 'creation_date' ) ;
#164 = DIRECTION ( 'NONE',  ( -3.491481338843133355E-15, 0.000000000000000000, -1.000000000000000000 ) ) ;
#165 = APPROVAL_STATUS ( 'not_yet_approved' ) ;
#166 = PERSON_AND_ORGANIZATION ( #266, #145 ) ;
#167 = CYLINDRICAL_SURFACE ( 'NONE', #278, 1.090000000000000080 ) ;
#168 = FACE_BOUND ( 'NONE', #361, .T. ) ;
#169 = AXIS2_PLACEMENT_3D ( 'NONE', #283, #251, #130 ) ;
#170 = DIRECTION ( 'NONE',  ( -3.491481338843133355E-15, 0.000000000000000000, -1.000000000000000000 ) ) ;
#171 = FACE_OUTER_BOUND ( 'NONE', #248, .T. ) ;
#172 = DIRECTION ( 'NONE',  ( 1.000000000000000000, 0.000000000000000000, -3.491481338843133355E-15 ) ) ;
#173 = DIRECTION ( 'NONE',  ( 3.491481338843133355E-15, -0.000000000000000000, 1.000000000000000000 ) ) ;
#174 = FACE_OUTER_BOUND ( 'NONE', #60, .T. ) ;
#175 = APPROVAL ( #165, 'UNSPECIFIED' ) ;
#176 = DIRECTION ( 'NONE',  ( 1.000000000000000000, 0.000000000000000000, -3.734305667001666431E-15 ) ) ;
#177 = DIRECTION ( 'NONE',  ( 1.000000000000000000, 0.000000000000000000, -6.365957710006631387E-15 ) ) ;
#178 = APPLICATION_CONTEXT ( 'configuration controlled 3d designs of mechanical parts and assemblies' ) ;
#179 = CIRCLE ( 'NONE', #211, 0.8950000000000000178 ) ;
#180 = PRODUCT_DEFINITION_FORMATION_WITH_SPECIFIED_SOURCE ( 'ANY', '', #113, .NOT_KNOWN. ) ;
#181 = DIRECTION ( 'NONE',  ( 1.000000000000000000, 0.000000000000000000, -3.491481338843133355E-15 ) ) ;
#182 = EDGE_LOOP ( 'NONE', ( #389 ) ) ;
#183 = DIRECTION ( 'NONE',  ( 1.000000000000000000, 0.000000000000000000, -3.481383122659876478E-15 ) ) ;
#184 = EDGE_CURVE ( 'NONE', #347, #347, #179, .T. ) ;
#185 = DIRECTION ( 'NONE',  ( 1.000000000000000000, 0.000000000000000000, -3.481383122659876478E-15 ) ) ;
#186 = EDGE_LOOP ( 'NONE', ( #121 ) ) ;
#187 = AXIS2_PLACEMENT_3D ( 'NONE', #317, #253, #258 ) ;
#188 = DIRECTION ( 'NONE',  ( -1.000000000000000000, 0.000000000000000000, 3.481383122659876478E-15 ) ) ;
#189 = PERSON_AND_ORGANIZATION_ROLE ( 'creator' ) ;
#190 = CIRCLE ( 'NONE', #327, 0.9290741737109293741 ) ;
#191 = DATE_TIME_ROLE ( 'classification_date' ) ;
#192 = COORDINATED_UNIVERSAL_TIME_OFFSET ( 1, 0, .AHEAD. ) ;
#193 = DIRECTION ( 'NONE',  ( -1.000000000000000000, 0.000000000000000000, 3.491481338843133355E-15 ) ) ;
#194 = CC_DESIGN_PERSON_AND_ORGANIZATION_ASSIGNMENT ( #8, #9, ( #324 ) ) ;
#195 = CARTESIAN_POINT ( 'NONE',  ( 1.745740669421568255E-15, 0.000000000000000000, 0.5000000000000004441 ) ) ;
#196 = FACE_OUTER_BOUND ( 'NONE', #238, .T. ) ;
#197 = CARTESIAN_POINT ( 'NONE',  ( 1.636631877582708111E-15, 0.000000000000000000, 0.4687499999999969469 ) ) ;
#198 = CONICAL_SURFACE ( 'NONE', #78, 1.090000000000000080, 1.047197551196612064 ) ;
#199 = CARTESIAN_POINT ( 'NONE',  ( 4.728047646350040591E-16, 0.000000000000000000, 0.1354166666666656305 ) ) ;
#200 = CC_DESIGN_APPROVAL ( #85, ( #180 ) ) ;
#201 = DIRECTION ( 'NONE',  ( 1.000000000000000000, 0.000000000000000000, -3.493816633812232898E-15 ) ) ;
#202 = FACE_OUTER_BOUND ( 'NONE', #31, .T. ) ;
#203 = EDGE_CURVE ( 'NONE', #120, #120, #65, .T. ) ;
#204 = DIRECTION ( 'NONE',  ( 1.000000000000000000, 0.000000000000000000, -4.625929269271498733E-15 ) ) ;
#205 = DIRECTION ( 'NONE',  ( 1.000000000000000000, 0.000000000000000000, -3.876477041288956093E-15 ) ) ;
#206 = ORIENTED_EDGE ( 'NONE', *, *, #370, .F. ) ;
#207 =( GEOMETRIC_REPRESENTATION_CONTEXT ( 3 ) GLOBAL_UNCERTAINTY_ASSIGNED_CONTEXT ( ( #369 ) ) GLOBAL_UNIT_ASSIGNED_CONTEXT ( ( #82, #224, #136 ) ) REPRESENTATION_CONTEXT ( 'NONE', 'WORKASPACE' ) );
#208 = ADVANCED_FACE ( 'NONE', ( #227, #168 ), #309, .T. ) ;
#209 = FACE_OUTER_BOUND ( 'NONE', #367, .T. ) ;
#210 = ORIENTED_EDGE ( 'NONE', *, *, #344, .T. ) ;
#211 = AXIS2_PLACEMENT_3D ( 'NONE', #195, #104, #383 ) ;
#212 = EDGE_LOOP ( 'NONE', ( #140 ) ) ;
#213 = ADVANCED_FACE ( 'NONE', ( #138, #171 ), #10, .T. ) ;
#214 = CARTESIAN_POINT ( 'NONE',  ( 1.326762908760390423E-13, 0.000000000000000000, 38.00000000000000000 ) ) ;
#215 = EDGE_LOOP ( 'NONE', ( #259 ) ) ;
#216 = ORIENTED_EDGE ( 'NONE', *, *, #355, .T. ) ;
#217 = APPROVAL_PERSON_ORGANIZATION ( #166, #85, #221 ) ;
#218 = ADVANCED_FACE ( 'NONE', ( #131, #351 ), #322, .T. ) ;
#219 = PERSON_AND_ORGANIZATION ( #266, #145 ) ;
#220 = COORDINATED_UNIVERSAL_TIME_OFFSET ( 1, 0, .AHEAD. ) ;
#221 = APPROVAL_ROLE ( '' ) ;
#222 = CONICAL_SURFACE ( 'NONE', #36, 0.9290741737109293741, 0.2617993877991426355 ) ;
#223 = CARTESIAN_POINT ( 'NONE',  ( 1.745740669421566678E-15, 0.9456624327025926480, 0.5000000000000000000 ) ) ;
#224 =( NAMED_UNIT ( * ) PLANE_ANGLE_UNIT ( ) SI_UNIT ( $, .RADIAN. ) );
#225 = EDGE_CURVE ( 'NONE', #89, #89, #272, .T. ) ;
#226 = CARTESIAN_POINT ( 'NONE',  ( 1.090000000000001412, 0.000000000000000000, 0.3645833333333310389 ) ) ;
#227 = FACE_OUTER_BOUND ( 'NONE', #353, .T. ) ;
#228 = COORDINATED_UNIVERSAL_TIME_OFFSET ( 1, 0, .AHEAD. ) ;
#229 = VERTEX_POINT ( 'NONE', #289 ) ;
#230 = FACE_BOUND ( 'NONE', #112, .T. ) ;
#231 = DIRECTION ( 'NONE',  ( -3.491481338843133355E-15, 0.000000000000000000, -1.000000000000000000 ) ) ;
#232 = DIRECTION ( 'NONE',  ( 1.000000000000000000, 0.000000000000000000, 0.000000000000000000 ) ) ;
#233 = SECURITY_CLASSIFICATION ( '', '', #38 ) ;
#234 = DIRECTION ( 'NONE',  ( 3.491481338843133355E-15, -0.000000000000000000, 1.000000000000000000 ) ) ;
#235 = DIRECTION ( 'NONE',  ( -1.000000000000000000, 0.000000000000000000, 4.625929269271498733E-15 ) ) ;
#236 = AXIS2_PLACEMENT_3D ( 'NONE', #46, #286, #185 ) ;
#237 = CONICAL_SURFACE ( 'NONE', #101, 1.499999999999995781, 0.7853981633974389531 ) ;
#238 = EDGE_LOOP ( 'NONE', ( #290 ) ) ;
#239 = ORIENTED_EDGE ( 'NONE', *, *, #240, .F. ) ;
#240 = EDGE_CURVE ( 'NONE', #151, #151, #156, .T. ) ;
#241 = CONICAL_SURFACE ( 'NONE', #326, 1.090000000000000080, 1.047197551196612064 ) ;
#242 = DESIGN_CONTEXT ( 'detailed design', #178, 'design' ) ;
#243 = LOCAL_TIME ( 7, 49, 12.00000000000000000, #275 ) ;
#244 = EDGE_LOOP ( 'NONE', ( #126 ) ) ;
#245 = CARTESIAN_POINT ( 'NONE',  ( 1.500000000000028644, 0.000000000000000000, 8.189543236166619167 ) ) ;
#246 = ORIENTED_EDGE ( 'NONE', *, *, #225, .F. ) ;
#247 = CARTESIAN_POINT ( 'NONE',  ( 0.8915358449660651941, 0.000000000000000000, -3.112780765608761522E-15 ) ) ;
#248 = EDGE_LOOP ( 'NONE', ( #58 ) ) ;
#249 = SHAPE_DEFINITION_REPRESENTATION ( #88, #394 ) ;
#250 = AXIS2_PLACEMENT_3D ( 'NONE', #356, #170, #193 ) ;
#251 = DIRECTION ( 'NONE',  ( 0.000000000000000000, 0.000000000000000000, 1.000000000000000000 ) ) ;
#252 = PERSON_AND_ORGANIZATION ( #266, #145 ) ;
#253 = DIRECTION ( 'NONE',  ( 3.491481338843133355E-15, -0.000000000000000000, 1.000000000000000000 ) ) ;
#254 = CIRCLE ( 'NONE', #37, 0.9456624327025927590 ) ;
#255 = DIRECTION ( 'NONE',  ( 3.491481338843133355E-15, -0.000000000000000000, 1.000000000000000000 ) ) ;
#256 = APPROVAL_STATUS ( 'not_yet_approved' ) ;
#257 = CARTESIAN_POINT ( 'NONE',  ( 2.115425363140279297E-14, 0.000000000000000000, 6.058819045102511680 ) ) ;
#258 = DIRECTION ( 'NONE',  ( 1.000000000000000000, 0.000000000000000000, -3.439500613512735555E-15 ) ) ;
#259 = ORIENTED_EDGE ( 'NONE', *, *, #364, .F. ) ;
#260 = DIRECTION ( 'NONE',  ( 1.000000000000000000, 0.000000000000000000, -3.496825623737947255E-15 ) ) ;
#261 = FACE_OUTER_BOUND ( 'NONE', #212, .T. ) ;
#262 = DIRECTION ( 'NONE',  ( 1.000000000000000000, 0.000000000000000000, -3.496825623737947255E-15 ) ) ;
#263 = EDGE_LOOP ( 'NONE', ( #210 ) ) ;
#264 = ADVANCED_FACE ( 'NONE', ( #287, #50 ), #167, .T. ) ;
#265 = EDGE_LOOP ( 'NONE', ( #27 ) ) ;
#266 = PERSON ( 'UNSPECIFIED', 'UNSPECIFIED', 'UNSPECIFIED', ('UNSPECIFIED'), ('UNSPECIFIED'), ('UNSPECIFIED') ) ;
#267 = LOCAL_TIME ( 7, 49, 12.00000000000000000, #35 ) ;
#268 = EDGE_LOOP ( 'NONE', ( #296 ) ) ;
#269 = ORIENTED_EDGE ( 'NONE', *, *, #184, .T. ) ;
#270 = ADVANCED_FACE ( 'NONE', ( #76, #75 ), #237, .T. ) ;
#271 = CARTESIAN_POINT ( 'NONE',  ( 1.326762908760390423E-13, 0.000000000000000000, 38.00000000000000000 ) ) ;
#272 = CIRCLE ( 'NONE', #187, 0.9456624327025926480 ) ;
#273 = CARTESIAN_POINT ( 'NONE',  ( 1.345675099345788088E-15, 0.000000000000000000, 0.3854166666666658525 ) ) ;
#274 = ORIENTED_EDGE ( 'NONE', *, *, #344, .F. ) ;
#275 = COORDINATED_UNIVERSAL_TIME_OFFSET ( 1, 0, .AHEAD. ) ;
#276 = APPLICATION_PROTOCOL_DEFINITION ( 'international standard', 'config_control_design', 1994, #178 ) ;
#277 = VERTEX_POINT ( 'NONE', #70 ) ;
#278 = AXIS2_PLACEMENT_3D ( 'NONE', #12, #22, #177 ) ;
#279 = VERTEX_POINT ( 'NONE', #335 ) ;
#280 = MECHANICAL_CONTEXT ( 'NONE', #55, 'mechanical' ) ;
#281 = ADVANCED_FACE ( 'NONE', ( #261 ), #80, .F. ) ;
#282 = DIRECTION ( 'NONE',  ( -3.491481338843133355E-15, 0.000000000000000000, -1.000000000000000000 ) ) ;
#283 = CARTESIAN_POINT ( 'NONE',  ( 0.000000000000000000, 0.000000000000000000, 0.000000000000000000 ) ) ;
#284 = DIRECTION ( 'NONE',  ( 1.000000000000000000, 0.000000000000000000, -3.496825623737947255E-15 ) ) ;
#285 = CIRCLE ( 'NONE', #376, 0.9456624327025927590 ) ;
#286 = DIRECTION ( 'NONE',  ( 3.491481338843133355E-15, -0.000000000000000000, 1.000000000000000000 ) ) ;
#287 = FACE_OUTER_BOUND ( 'NONE', #320, .T. ) ;
#288 = CARTESIAN_POINT ( 'NONE',  ( 1.326762908760390423E-13, 0.000000000000000000, 38.00000000000000000 ) ) ;
#289 = CARTESIAN_POINT ( 'NONE',  ( 1.090000000000001412, 0.000000000000000000, 0.3854166666666620777 ) ) ;
#290 = ORIENTED_EDGE ( 'NONE', *, *, #299, .T. ) ;
#291 = DIRECTION ( 'NONE',  ( 1.000000000000000000, 0.000000000000000000, -3.491481338843133355E-15 ) ) ;
#292 = FACE_OUTER_BOUND ( 'NONE', #301, .T. ) ;
#293 = DIRECTION ( 'NONE',  ( 1.000000000000000000, 0.000000000000000000, 0.000000000000000000 ) ) ;
#294 = AXIS2_PLACEMENT_3D ( 'NONE', #139, #84, #172 ) ;
#295 = CC_DESIGN_PERSON_AND_ORGANIZATION_ASSIGNMENT ( #161, #307, ( #180 ) ) ;
#296 = ORIENTED_EDGE ( 'NONE', *, *, #40, .F. ) ;
#297 = PLANE ( 'NONE',  #16 ) ;
#298 = CC_DESIGN_SECURITY_CLASSIFICATION ( #233, ( #180 ) ) ;
#299 = EDGE_CURVE ( 'NONE', #372, #372, #149, .T. ) ;
#300 = ORIENTED_EDGE ( 'NONE', *, *, #203, .F. ) ;
#301 = EDGE_LOOP ( 'NONE', ( #274 ) ) ;
#302 = CIRCLE ( 'NONE', #358, 1.199999999999999734 ) ;
#303 = AXIS2_PLACEMENT_3D ( 'NONE', #349, #234, #313 ) ;
#304 = ORIENTED_EDGE ( 'NONE', *, *, #391, .T. ) ;
#305 = CALENDAR_DATE ( 2023, 27, 9 ) ;
#306 = DATE_AND_TIME ( #69, #267 ) ;
#307 = PERSON_AND_ORGANIZATION_ROLE ( 'design_supplier' ) ;
#308 = CC_DESIGN_PERSON_AND_ORGANIZATION_ASSIGNMENT ( #252, #379, ( #233 ) ) ;
#309 = CONICAL_SURFACE ( 'NONE', #359, 0.8915358449660651941, 1.047197551196595189 ) ;
#310 = DIRECTION ( 'NONE',  ( 3.491481338843133355E-15, -0.000000000000000000, 1.000000000000000000 ) ) ;
#311 = CYLINDRICAL_SURFACE ( 'NONE', #316, 1.090000000000000080 ) ;
#312 = CALENDAR_DATE ( 2023, 27, 9 ) ;
#313 = DIRECTION ( 'NONE',  ( 1.000000000000000000, 0.000000000000000000, -3.469446951953614189E-15 ) ) ;
#314 = EDGE_CURVE ( 'NONE', #68, #68, #7, .T. ) ;
#315 = FACE_OUTER_BOUND ( 'NONE', #268, .T. ) ;
#316 = AXIS2_PLACEMENT_3D ( 'NONE', #106, #378, #52 ) ;
#317 = CARTESIAN_POINT ( 'NONE',  ( 1.745740669421568255E-15, 0.000000000000000000, 0.5000000000000004441 ) ) ;
#318 = CYLINDRICAL_SURFACE ( 'NONE', #144, 0.9456624327025926480 ) ;
#319 = CARTESIAN_POINT ( 'NONE',  ( 0.8950000000000017941, 0.000000000000000000, 0.4999999999999972800 ) ) ;
#320 = EDGE_LOOP ( 'NONE', ( #382 ) ) ;
#321 = DIRECTION ( 'NONE',  ( 1.000000000000000000, 0.000000000000000000, -3.481383122659876478E-15 ) ) ;
#322 = CYLINDRICAL_SURFACE ( 'NONE', #45, 0.8949999999999997957 ) ;
#323 = EDGE_LOOP ( 'NONE', ( #269 ) ) ;
#324 = PRODUCT_DEFINITION ( 'UNKNOWN', '', #180, #242 ) ;
#325 = CARTESIAN_POINT ( 'NONE',  ( 1.326762908760390423E-13, 0.000000000000000000, 38.00000000000000000 ) ) ;
#326 = AXIS2_PLACEMENT_3D ( 'NONE', #273, #4, #188 ) ;
#327 = AXIS2_PLACEMENT_3D ( 'NONE', #257, #47, #176 ) ;
#328 = CARTESIAN_POINT ( 'NONE',  ( 2.025059176529017031E-14, 0.000000000000000000, 5.799999999999999822 ) ) ;
#329 = CLOSED_SHELL ( 'NONE', ( #118, #208, #135, #157, #213, #162, #264, #64, #95, #147, #218, #25, #2, #387, #270, #281 ) ) ;
#330 = CIRCLE ( 'NONE', #294, 0.8915358449660651941 ) ;
#331 = DIRECTION ( 'NONE',  ( 1.000000000000000000, 0.000000000000000000, -5.782411586589358033E-15 ) ) ;
#332 = FACE_BOUND ( 'NONE', #186, .T. ) ;
#333 = ORIENTED_EDGE ( 'NONE', *, *, #32, .F. ) ;
#334 = EDGE_CURVE ( 'NONE', #279, #279, #254, .T. ) ;
#335 = CARTESIAN_POINT ( 'NONE',  ( 0.9456624327025935361, 0.000000000000000000, 0.2187499999999934219 ) ) ;
#336 = AXIS2_PLACEMENT_3D ( 'NONE', #199, #173, #321 ) ;
#337 = EDGE_LOOP ( 'NONE', ( #333 ) ) ;
#338 = APPROVAL_DATE_TIME ( #127, #175 ) ;
#339 = CC_DESIGN_PERSON_AND_ORGANIZATION_ASSIGNMENT ( #219, #189, ( #180 ) ) ;
#340 = APPLICATION_PROTOCOL_DEFINITION ( 'international standard', 'config_control_design', 1994, #55 ) ;
#341 = PERSON_AND_ORGANIZATION ( #266, #145 ) ;
#342 = AXIS2_PLACEMENT_3D ( 'NONE', #56, #132, #201 ) ;
#343 = DIRECTION ( 'NONE',  ( 1.000000000000000000, 0.000000000000000000, -3.491481338843133355E-15 ) ) ;
#344 = EDGE_CURVE ( 'NONE', #123, #123, #66, .T. ) ;
#345 = DIRECTION ( 'NONE',  ( 3.491481338843133355E-15, -0.000000000000000000, 1.000000000000000000 ) ) ;
#346 = CARTESIAN_POINT ( 'NONE',  ( 0.000000000000000000, 0.000000000000000000, 0.000000000000000000 ) ) ;
#347 = VERTEX_POINT ( 'NONE', #319 ) ;
#348 = FACE_OUTER_BOUND ( 'NONE', #182, .T. ) ;
#349 = CARTESIAN_POINT ( 'NONE',  ( 2.859363738272477547E-14, 0.000000000000000000, 8.189543236166624496 ) ) ;
#350 = AXIS2_PLACEMENT_3D ( 'NONE', #83, #18, #204 ) ;
#351 = FACE_OUTER_BOUND ( 'NONE', #323, .T. ) ;
#352 = DIRECTION ( 'NONE',  ( 3.491481338843133355E-15, -0.000000000000000000, 1.000000000000000000 ) ) ;
#353 = EDGE_LOOP ( 'NONE', ( #63 ) ) ;
#354 = MANIFOLD_SOLID_BREP ( 'Corps-Déplacer/Copier1', #329 ) ;
#355 = EDGE_CURVE ( 'NONE', #26, #26, #285, .T. ) ;
#356 = CARTESIAN_POINT ( 'NONE',  ( 1.326762908760390423E-13, 1.199999999999999734, 38.00000000000000000 ) ) ;
#357 = VERTEX_POINT ( 'NONE', #54 ) ;
#358 = AXIS2_PLACEMENT_3D ( 'NONE', #271, #29, #331 ) ;
#359 = AXIS2_PLACEMENT_3D ( 'NONE', #346, #44, #291 ) ;
#360 = DIRECTION ( 'NONE',  ( 1.000000000000000000, 0.000000000000000000, -3.734305667001666431E-15 ) ) ;
#361 = EDGE_LOOP ( 'NONE', ( #363 ) ) ;
#362 = LOCAL_TIME ( 7, 49, 12.00000000000000000, #228 ) ;
#363 = ORIENTED_EDGE ( 'NONE', *, *, #370, .T. ) ;
#364 = EDGE_CURVE ( 'NONE', #357, #357, #190, .T. ) ;
#365 = VERTEX_POINT ( 'NONE', #247 ) ;
#366 = EDGE_LOOP ( 'NONE', ( #159 ) ) ;
#367 = EDGE_LOOP ( 'NONE', ( #206 ) ) ;
#368 = APPROVAL_PERSON_ORGANIZATION ( #39, #49, #74 ) ;
#369 = UNCERTAINTY_MEASURE_WITH_UNIT (LENGTH_MEASURE( 1.000000000000000082E-05 ), #82, 'distance_accuracy_value', 'NONE');
#370 = EDGE_CURVE ( 'NONE', #365, #365, #330, .T. ) ;
#371 = PERSON_AND_ORGANIZATION ( #266, #145 ) ;
#372 = VERTEX_POINT ( 'NONE', #158 ) ;
#373 = DIRECTION ( 'NONE',  ( -1.000000000000000000, 0.000000000000000000, 3.491481338843133355E-15 ) ) ;
#374 = PERSON_AND_ORGANIZATION_ROLE ( 'design_owner' ) ;
#375 = AXIS2_PLACEMENT_3D ( 'NONE', #223, #164, #373 ) ;
#376 = AXIS2_PLACEMENT_3D ( 'NONE', #53, #43, #284 ) ;
#377 = VERTEX_POINT ( 'NONE', #103 ) ;
#378 = DIRECTION ( 'NONE',  ( 3.491481338843133355E-15, -0.000000000000000000, 1.000000000000000000 ) ) ;
#379 = PERSON_AND_ORGANIZATION_ROLE ( 'classification_officer' ) ;
#380 = CYLINDRICAL_SURFACE ( 'NONE', #3, 1.499999999999997780 ) ;
#381 = CARTESIAN_POINT ( 'NONE',  ( 1.326762908760390423E-13, 0.000000000000000000, 38.00000000000000000 ) ) ;
#382 = ORIENTED_EDGE ( 'NONE', *, *, #73, .F. ) ;
#383 = DIRECTION ( 'NONE',  ( 1.000000000000000000, 0.000000000000000000, -3.513057318668114882E-15 ) ) ;
#384 = CARTESIAN_POINT ( 'NONE',  ( 0.9456624327025936472, 0.000000000000000000, 0.2812499999999934497 ) ) ;
#385 = DIRECTION ( 'NONE',  ( 3.491481338843133355E-15, -0.000000000000000000, 1.000000000000000000 ) ) ;
#386 = LOCAL_TIME ( 7, 49, 12.00000000000000000, #192 ) ;
#387 = ADVANCED_FACE ( 'NONE', ( #292, #146 ), #380, .T. ) ;
#388 = CARTESIAN_POINT ( 'NONE',  ( 1.316288464743861212E-13, 0.000000000000000000, 37.69999999999999574 ) ) ;
#389 = ORIENTED_EDGE ( 'NONE', *, *, #203, .T. ) ;
#390 = ORIENTED_EDGE ( 'NONE', *, *, #355, .F. ) ;
#391 = EDGE_CURVE ( 'NONE', #277, #277, #122, .T. ) ;
#392 = CC_DESIGN_APPROVAL ( #49, ( #324 ) ) ;
#393 = CARTESIAN_POINT ( 'NONE',  ( 2.115425363140279297E-14, 0.000000000000000000, 6.058819045102511680 ) ) ;
#394 = ADVANCED_BREP_SHAPE_REPRESENTATION ( '960062', ( #354, #169 ), #207 ) ;
#395 = EDGE_LOOP ( 'NONE', ( #390 ) ) ;
ENDSEC;
END-ISO-10303-21;
