ISO-10303-21;
HEADER;
FILE_DESCRIPTION (( 'STEP AP203' ),
    '1' );
FILE_NAME ('960023.step',
    '2021-11-29T14:49:34',
    ( '' ),
    ( '' ),
    'SwSTEP 2.0',
    'SolidWorks 2019',
    '' );
FILE_SCHEMA (( 'CONFIG_CONTROL_DESIGN' ));
ENDSEC;

DATA;
#1 = ORIENTED_EDGE ( 'NONE', *, *, #29, .F. ) ;
#2 = DIRECTION ( 'NONE',  ( 3.491481338843133355E-15, -1.224646799147352961E-16, 1.000000000000000000 ) ) ;
#3 = UNCERTAINTY_MEASURE_WITH_UNIT (LENGTH_MEASURE( 1.000000000000000082E-05 ), #239, 'distance_accuracy_value', 'NONE');
#4 = ORIENTED_EDGE ( 'NONE', *, *, #253, .F. ) ;
#5 = VERTEX_POINT ( 'NONE', #101 ) ;
#6 = MANIFOLD_SOLID_BREP ( 'Corps-Déplacer/Copier1[1]', #257 ) ;
#7 = CARTESIAN_POINT ( 'NONE',  ( 1.745740669421566678E-14, 3.513187290885390964E-33, 5.000000000000000000 ) ) ;
#8 = DIRECTION ( 'NONE',  ( 0.0000000000000000000, 1.000000000000000000, 0.0000000000000000000 ) ) ;
#9 = DIRECTION ( 'NONE',  ( -3.491481338843133355E-15, 1.224646799147352961E-16, -1.000000000000000000 ) ) ;
#10 = VERTEX_POINT ( 'NONE', #157 ) ;
#11 = DIRECTION ( 'NONE',  ( -3.491481338843133355E-15, 1.224646799147352961E-16, -1.000000000000000000 ) ) ;
#12 = CIRCLE ( 'NONE', #201, 1.200000000000003286 ) ;
#13 = FACE_OUTER_BOUND ( 'NONE', #155, .T. ) ;
#14 = LOCAL_TIME ( 15, 49, 34.00000000000000000, #219 ) ;
#15 = APPROVAL_STATUS ( 'not_yet_approved' ) ;
#16 = DIRECTION ( 'NONE',  ( 3.491481338843133355E-15, -1.224646799147352961E-16, 1.000000000000000000 ) ) ;
#17 = CC_DESIGN_DATE_AND_TIME_ASSIGNMENT ( #153, #242, ( #23 ) ) ;
#18 = CARTESIAN_POINT ( 'NONE',  ( -2.455864458334694732E-31, 8.614012953699067240E-33, -7.033875366919246881E-17 ) ) ;
#19 = COORDINATED_UNIVERSAL_TIME_OFFSET ( 1, 0, .AHEAD. ) ;
#20 = PERSON_AND_ORGANIZATION ( #300, #123 ) ;
#21 = AXIS2_PLACEMENT_3D ( 'NONE', #127, #86, #262 ) ;
#22 = CIRCLE ( 'NONE', #43, 0.4249999999999999889 ) ;
#23 = PRODUCT_DEFINITION ( 'UNKNOWN', '', #233, #279 ) ;
#24 = PERSON_AND_ORGANIZATION ( #300, #123 ) ;
#25 = CARTESIAN_POINT ( 'NONE',  ( 3.612739213212769742E-14, -1.267178336138866772E-15, 10.34729635533384773 ) ) ;
#26 = APPLICATION_CONTEXT ( 'configuration controlled 3d designs of mechanical parts and assemblies' ) ;
#27 = EDGE_LOOP ( 'NONE', ( #159 ) ) ;
#28 =( GEOMETRIC_REPRESENTATION_CONTEXT ( 3 ) GLOBAL_UNCERTAINTY_ASSIGNED_CONTEXT ( ( #3 ) ) GLOBAL_UNIT_ASSIGNED_CONTEXT ( ( #239, #269, #274 ) ) REPRESENTATION_CONTEXT ( 'NONE', 'WORKASPACE' ) );
#29 = EDGE_CURVE ( 'NONE', #73, #73, #302, .T. ) ;
#30 = CARTESIAN_POINT ( 'NONE',  ( 0.0000000000000000000, 0.0000000000000000000, 0.0000000000000000000 ) ) ;
#31 = ORIENTED_EDGE ( 'NONE', *, *, #105, .F. ) ;
#32 = ORIENTED_EDGE ( 'NONE', *, *, #105, .T. ) ;
#33 = SHAPE_DEFINITION_REPRESENTATION ( #178, #204 ) ;
#34 = CARTESIAN_POINT ( 'NONE',  ( 3.491481338843133986E-14, 0.4249999999999987121, 10.00000000000000178 ) ) ;
#35 = VERTEX_POINT ( 'NONE', #34 ) ;
#36 = AXIS2_PLACEMENT_3D ( 'NONE', #287, #165, #160 ) ;
#37 = CARTESIAN_POINT ( 'NONE',  ( 1.745740669421566678E-14, -6.123233995736765296E-16, 5.000000000000000000 ) ) ;
#38 = CARTESIAN_POINT ( 'NONE',  ( -1.227932229167347366E-31, 4.307006476849533620E-33, -3.516937683459623440E-17 ) ) ;
#39 = DIRECTION ( 'NONE',  ( 4.275831445896957731E-31, 1.000000000000000000, 1.224646799147353207E-16 ) ) ;
#40 = DIRECTION ( 'NONE',  ( 4.275831445896957731E-31, 1.000000000000000000, 1.224646799147352961E-16 ) ) ;
#41 = FACE_OUTER_BOUND ( 'NONE', #117, .T. ) ;
#42 = ADVANCED_FACE ( 'NONE', ( #261, #218 ), #60, .T. ) ;
#43 = AXIS2_PLACEMENT_3D ( 'NONE', #236, #44, #169 ) ;
#44 = DIRECTION ( 'NONE',  ( -3.491481338843133355E-15, 1.224646799147352961E-16, -1.000000000000000000 ) ) ;
#45 = APPROVAL_DATE_TIME ( #238, #215 ) ;
#46 = DIRECTION ( 'NONE',  ( 3.491481338843133355E-15, -1.224646799147352961E-16, 1.000000000000000000 ) ) ;
#47 = PERSON_AND_ORGANIZATION ( #300, #123 ) ;
#48 = CARTESIAN_POINT ( 'NONE',  ( 1.326762908760390423E-13, -4.653657836759941152E-15, 38.00000000000000000 ) ) ;
#49 = CIRCLE ( 'NONE', #197, 0.4553844939755798960 ) ;
#50 = PERSON_AND_ORGANIZATION ( #300, #123 ) ;
#51 = EDGE_LOOP ( 'NONE', ( #121 ) ) ;
#52 = PRODUCT_RELATED_PRODUCT_CATEGORY ( 'detail', '', ( #277 ) ) ;
#53 = ADVANCED_FACE ( 'NONE', ( #107, #145 ), #284, .T. ) ;
#54 = AXIS2_PLACEMENT_3D ( 'NONE', #58, #231, #106 ) ;
#55 = CALENDAR_DATE ( 2021, 29, 11 ) ;
#56 = EDGE_LOOP ( 'NONE', ( #95 ) ) ;
#57 = PLANE ( 'NONE',  #89 ) ;
#58 = CARTESIAN_POINT ( 'NONE',  ( 3.491481338843133355E-14, -1.301042606982605321E-15, 10.00000000000000000 ) ) ;
#59 = PLANE ( 'NONE',  #248 ) ;
#60 = CONICAL_SURFACE ( 'NONE', #264, 0.4249999999999992117, 0.5235987755982913772 ) ;
#61 = CARTESIAN_POINT ( 'NONE',  ( 0.0000000000000000000, 0.0000000000000000000, 0.0000000000000000000 ) ) ;
#62 = DIRECTION ( 'NONE',  ( 0.0000000000000000000, 1.000000000000000000, 0.0000000000000000000 ) ) ;
#63 = DIRECTION ( 'NONE',  ( 4.275831445896957731E-31, 1.000000000000000000, 1.224646799147353207E-16 ) ) ;
#64 = FACE_BOUND ( 'NONE', #128, .T. ) ;
#65 = CIRCLE ( 'NONE', #141, 0.3530299461620758916 ) ;
#66 = VERTEX_POINT ( 'NONE', #148 ) ;
#67 = FACE_OUTER_BOUND ( 'NONE', #51, .T. ) ;
#68 = CIRCLE ( 'NONE', #250, 0.4685000000000000275 ) ;
#69 = ADVANCED_FACE ( 'NONE', ( #13, #188 ), #108, .T. ) ;
#70 = ORIENTED_EDGE ( 'NONE', *, *, #253, .T. ) ;
#71 = ORIENTED_EDGE ( 'NONE', *, *, #150, .T. ) ;
#72 = CARTESIAN_POINT ( 'NONE',  ( 6.982962677686267697E-16, 0.4684999999999994169, 0.2000000000000000111 ) ) ;
#73 = VERTEX_POINT ( 'NONE', #214 ) ;
#74 = AXIS2_PLACEMENT_3D ( 'NONE', #104, #259, #182 ) ;
#75 = CC_DESIGN_APPROVAL ( #228, ( #258 ) ) ;
#76 = EDGE_LOOP ( 'NONE', ( #1 ) ) ;
#77 = EDGE_CURVE ( 'NONE', #10, #10, #65, .T. ) ;
#78 = VERTEX_POINT ( 'NONE', #158 ) ;
#79 = EDGE_LOOP ( 'NONE', ( #31 ) ) ;
#80 = CARTESIAN_POINT ( 'NONE',  ( 1.326762908760390423E-13, 1.199999999999998845, 38.00000000000000000 ) ) ;
#81 = ORIENTED_EDGE ( 'NONE', *, *, #93, .F. ) ;
#82 = DIRECTION ( 'NONE',  ( -4.275831445896957731E-31, -1.000000000000000000, -1.224646799147352961E-16 ) ) ;
#83 = CC_DESIGN_APPROVAL ( #206, ( #233 ) ) ;
#84 = CARTESIAN_POINT ( 'NONE',  ( 0.0000000000000000000, 0.0000000000000000000, 0.0000000000000000000 ) ) ;
#85 = CARTESIAN_POINT ( 'NONE',  ( 5.681200619910854129E-14, -1.992696932698792137E-15, 16.27160528314111332 ) ) ;
#86 = DIRECTION ( 'NONE',  ( -3.491481338843133355E-15, 1.224646799147352961E-16, -1.000000000000000000 ) ) ;
#87 = PERSON_AND_ORGANIZATION_ROLE ( 'design_supplier' ) ;
#88 = DIRECTION ( 'NONE',  ( 0.0000000000000000000, 1.000000000000000000, 0.0000000000000000000 ) ) ;
#89 = AXIS2_PLACEMENT_3D ( 'NONE', #205, #235, #122 ) ;
#90 = PLANE ( 'NONE',  #161 ) ;
#91 = APPROVAL_ROLE ( '' ) ;
#92 = APPLICATION_CONTEXT ( 'configuration controlled 3d designs of mechanical parts and assemblies' ) ;
#93 = EDGE_CURVE ( 'NONE', #35, #35, #22, .T. ) ;
#94 = ORIENTED_EDGE ( 'NONE', *, *, #200, .T. ) ;
#95 = ORIENTED_EDGE ( 'NONE', *, *, #187, .F. ) ;
#96 = APPROVAL_STATUS ( 'not_yet_approved' ) ;
#97 = COORDINATED_UNIVERSAL_TIME_OFFSET ( 1, 0, .AHEAD. ) ;
#98 = EDGE_LOOP ( 'NONE', ( #32 ) ) ;
#99 = FACE_OUTER_BOUND ( 'NONE', #76, .T. ) ;
#100 = CC_DESIGN_PERSON_AND_ORGANIZATION_ASSIGNMENT ( #190, #87, ( #233 ) ) ;
#101 = CARTESIAN_POINT ( 'NONE',  ( 5.681200619910854129E-14, 1.499999999999995559, 16.27160528314111332 ) ) ;
#102 = AXIS2_PLACEMENT_3D ( 'NONE', #192, #291, #267 ) ;
#103 = FACE_OUTER_BOUND ( 'NONE', #27, .T. ) ;
#104 = CARTESIAN_POINT ( 'NONE',  ( 6.982962677686265724E-16, -2.449293598294705305E-17, 0.1999999999999999556 ) ) ;
#105 = EDGE_CURVE ( 'NONE', #5, #5, #272, .T. ) ;
#106 = DIRECTION ( 'NONE',  ( 4.275831445896957731E-31, 1.000000000000000000, 1.224646799147352961E-16 ) ) ;
#107 = FACE_OUTER_BOUND ( 'NONE', #79, .T. ) ;
#108 = CONICAL_SURFACE ( 'NONE', #21, 1.200000000000003286, 0.7853981633974453924 ) ;
#109 = PERSON_AND_ORGANIZATION_ROLE ( 'creator' ) ;
#110 = DIRECTION ( 'NONE',  ( -4.110842997624841152E-31, -1.000000000000000000, -1.157099437017615462E-16 ) ) ;
#111 = DIRECTION ( 'NONE',  ( 0.0000000000000000000, 1.000000000000000000, 0.0000000000000000000 ) ) ;
#112 = PERSON_AND_ORGANIZATION_ROLE ( 'creator' ) ;
#113 = ADVANCED_FACE ( 'NONE', ( #67 ), #90, .F. ) ;
#114 = CALENDAR_DATE ( 2021, 29, 11 ) ;
#115 = PERSON_AND_ORGANIZATION ( #300, #123 ) ;
#116 = EDGE_LOOP ( 'NONE', ( #70 ) ) ;
#117 = EDGE_LOOP ( 'NONE', ( #119 ) ) ;
#118 = AXIS2_PLACEMENT_3D ( 'NONE', #84, #164, #39 ) ;
#119 = ORIENTED_EDGE ( 'NONE', *, *, #270, .T. ) ;
#120 = EDGE_LOOP ( 'NONE', ( #223 ) ) ;
#121 = ORIENTED_EDGE ( 'NONE', *, *, #77, .T. ) ;
#122 = DIRECTION ( 'NONE',  ( 4.275831445896957731E-31, 1.000000000000000000, 1.224646799147352961E-16 ) ) ;
#123 = ORGANIZATION ( 'UNSPECIFIED', 'UNSPECIFIED', '' ) ;
#124 = ADVANCED_FACE ( 'NONE', ( #286, #195 ), #298, .T. ) ;
#125 = CARTESIAN_POINT ( 'NONE',  ( 1.772046959787181407E-14, 0.4249999999999986011, 5.075344210129248523 ) ) ;
#126 = CIRCLE ( 'NONE', #74, 0.4684999999999994169 ) ;
#127 = CARTESIAN_POINT ( 'NONE',  ( 1.326762908760390423E-13, -4.653657836759941152E-15, 38.00000000000000000 ) ) ;
#128 = EDGE_LOOP ( 'NONE', ( #181 ) ) ;
#129 = APPROVAL_ROLE ( '' ) ;
#130 = CARTESIAN_POINT ( 'NONE',  ( 1.316288464743861212E-13, -4.616918432785520292E-15, 37.69999999999999574 ) ) ;
#131 = PERSON_AND_ORGANIZATION ( #300, #123 ) ;
#132 = DIRECTION ( 'NONE',  ( -3.491481338843133355E-15, 1.224646799147352961E-16, -1.000000000000000000 ) ) ;
#133 = AXIS2_PLACEMENT_3D ( 'NONE', #85, #46, #289 ) ;
#134 = EDGE_LOOP ( 'NONE', ( #71 ) ) ;
#135 = ORIENTED_EDGE ( 'NONE', *, *, #171, .T. ) ;
#136 = CIRCLE ( 'NONE', #177, 1.500000000000003331 ) ;
#137 = CARTESIAN_POINT ( 'NONE',  ( 1.745740669421566678E-14, 3.513187290885390964E-33, 5.000000000000000000 ) ) ;
#138 = APPROVAL_ROLE ( '' ) ;
#139 = PLANE ( 'NONE',  #237 ) ;
#140 = CC_DESIGN_PERSON_AND_ORGANIZATION_ASSIGNMENT ( #20, #146, ( #277 ) ) ;
#141 = AXIS2_PLACEMENT_3D ( 'NONE', #18, #168, #63 ) ;
#142 = LOCAL_TIME ( 15, 49, 34.00000000000000000, #19 ) ;
#143 = FACE_OUTER_BOUND ( 'NONE', #246, .T. ) ;
#144 = FACE_OUTER_BOUND ( 'NONE', #56, .T. ) ;
#145 = FACE_OUTER_BOUND ( 'NONE', #174, .T. ) ;
#146 = PERSON_AND_ORGANIZATION_ROLE ( 'design_owner' ) ;
#147 = FACE_OUTER_BOUND ( 'NONE', #134, .T. ) ;
#148 = CARTESIAN_POINT ( 'NONE',  ( 1.745740669421566678E-14, 0.4684999999999994169, 5.000000000000000000 ) ) ;
#149 = CARTESIAN_POINT ( 'NONE',  ( 6.982962677686265724E-16, -2.449293598294705305E-17, 0.1999999999999999556 ) ) ;
#150 = EDGE_CURVE ( 'NONE', #78, #78, #49, .T. ) ;
#151 = ORIENTED_EDGE ( 'NONE', *, *, #93, .T. ) ;
#152 = AXIS2_PLACEMENT_3D ( 'NONE', #278, #179, #40 ) ;
#153 = DATE_AND_TIME ( #243, #208 ) ;
#154 = EDGE_LOOP ( 'NONE', ( #4 ) ) ;
#155 = EDGE_LOOP ( 'NONE', ( #273 ) ) ;
#156 = CLOSED_SHELL ( 'NONE', ( #113, #193, #241, #296 ) ) ;
#157 = CARTESIAN_POINT ( 'NONE',  ( -9.463679131915806782E-32, 0.3530299461620758916, -2.710505431213760469E-17 ) ) ;
#158 = CARTESIAN_POINT ( 'NONE',  ( 3.612739213212769742E-14, 0.4553844939755786192, 10.34729635533384773 ) ) ;
#159 = ORIENTED_EDGE ( 'NONE', *, *, #29, .T. ) ;
#160 = DIRECTION ( 'NONE',  ( 0.0000000000000000000, 1.000000000000000000, 0.0000000000000000000 ) ) ;
#161 = AXIS2_PLACEMENT_3D ( 'NONE', #38, #282, #260 ) ;
#162 = FACE_OUTER_BOUND ( 'NONE', #120, .T. ) ;
#163 = LOCAL_TIME ( 15, 49, 34.00000000000000000, #97 ) ;
#164 = DIRECTION ( 'NONE',  ( -3.491481338843133355E-15, 1.224646799147352961E-16, -1.000000000000000000 ) ) ;
#165 = DIRECTION ( 'NONE',  ( -3.491481338843133355E-15, 1.224646799147352961E-16, -1.000000000000000000 ) ) ;
#166 = APPROVAL_DATE_TIME ( #265, #206 ) ;
#167 = DIRECTION ( 'NONE',  ( -3.491481338843133355E-15, 1.224646799147352961E-16, -1.000000000000000000 ) ) ;
#168 = DIRECTION ( 'NONE',  ( -3.491481338843133355E-15, 1.224646799147352961E-16, -1.000000000000000000 ) ) ;
#169 = DIRECTION ( 'NONE',  ( 0.0000000000000000000, 1.000000000000000000, 0.0000000000000000000 ) ) ;
#170 = DATE_TIME_ROLE ( 'classification_date' ) ;
#171 = EDGE_CURVE ( 'NONE', #230, #230, #136, .T. ) ;
#172 = MECHANICAL_CONTEXT ( 'NONE', #26, 'mechanical' ) ;
#173 = TOROIDAL_SURFACE ( 'NONE', #54, 2.425000000000000266, 2.000000000000000888 ) ;
#174 = EDGE_LOOP ( 'NONE', ( #135 ) ) ;
#175 = VERTEX_POINT ( 'NONE', #72 ) ;
#176 = EDGE_LOOP ( 'NONE', ( #221 ) ) ;
#177 = AXIS2_PLACEMENT_3D ( 'NONE', #130, #240, #88 ) ;
#178 = PRODUCT_DEFINITION_SHAPE ( 'NONE', 'NONE',  #23 ) ;
#179 = DIRECTION ( 'NONE',  ( -3.491481338843133355E-15, 1.224646799147352961E-16, -1.000000000000000000 ) ) ;
#180 = AXIS2_PLACEMENT_3D ( 'NONE', #30, #189, #263 ) ;
#181 = ORIENTED_EDGE ( 'NONE', *, *, #77, .F. ) ;
#182 = DIRECTION ( 'NONE',  ( 4.110842997624841152E-31, 1.000000000000000000, 1.157099437017615462E-16 ) ) ;
#183 = APPROVAL_DATE_TIME ( #252, #228 ) ;
#184 = FACE_OUTER_BOUND ( 'NONE', #116, .T. ) ;
#185 = FACE_OUTER_BOUND ( 'NONE', #176, .T. ) ;
#186 = CIRCLE ( 'NONE', #207, 0.4249999999999992117 ) ;
#187 = EDGE_CURVE ( 'NONE', #280, #280, #12, .T. ) ;
#188 = FACE_BOUND ( 'NONE', #224, .T. ) ;
#189 = DIRECTION ( 'NONE',  ( 0.0000000000000000000, 0.0000000000000000000, 1.000000000000000000 ) ) ;
#190 = PERSON_AND_ORGANIZATION ( #300, #123 ) ;
#191 = FACE_OUTER_BOUND ( 'NONE', #271, .T. ) ;
#192 = CARTESIAN_POINT ( 'NONE',  ( 5.681200619910854129E-14, -1.992696932698792137E-15, 16.27160528314111332 ) ) ;
#193 = ADVANCED_FACE ( 'NONE', ( #64, #41 ), #244, .T. ) ;
#194 = DATE_AND_TIME ( #114, #251 ) ;
#195 = FACE_OUTER_BOUND ( 'NONE', #98, .T. ) ;
#196 = AXIS2_PLACEMENT_3D ( 'NONE', #149, #16, #110 ) ;
#197 = AXIS2_PLACEMENT_3D ( 'NONE', #25, #167, #62 ) ;
#198 = ADVANCED_FACE ( 'NONE', ( #191, #147 ), #173, .F. ) ;
#199 = APPLICATION_PROTOCOL_DEFINITION ( 'international standard', 'config_control_design', 1994, #92 ) ;
#200 = EDGE_CURVE ( 'NONE', #254, #254, #186, .T. ) ;
#201 = AXIS2_PLACEMENT_3D ( 'NONE', #48, #132, #295 ) ;
#202 = APPROVAL_PERSON_ORGANIZATION ( #131, #206, #129 ) ;
#203 = MANIFOLD_SOLID_BREP ( 'Corps-Déplacer/Copier1[2]', #156 ) ;
#204 = ADVANCED_BREP_SHAPE_REPRESENTATION ( '960023', ( #6, #203, #180 ), #28 ) ;
#205 = CARTESIAN_POINT ( 'NONE',  ( 1.326762908760390423E-13, 8.998558695971099120E-33, 38.00000000000000000 ) ) ;
#206 = APPROVAL ( #96, 'UNSPECIFIED' ) ;
#207 = AXIS2_PLACEMENT_3D ( 'NONE', #216, #11, #210 ) ;
#208 = LOCAL_TIME ( 15, 49, 34.00000000000000000, #288 ) ;
#209 = CARTESIAN_POINT ( 'NONE',  ( 1.316288464743861212E-13, 1.499999999999998668, 37.69999999999999574 ) ) ;
#210 = DIRECTION ( 'NONE',  ( 0.0000000000000000000, 1.000000000000000000, 0.0000000000000000000 ) ) ;
#211 = DIRECTION ( 'NONE',  ( -3.491481338843133355E-15, 1.224646799147352961E-16, -1.000000000000000000 ) ) ;
#212 = DIRECTION ( 'NONE',  ( 4.275831445896957731E-31, 1.000000000000000000, 1.224646799147352961E-16 ) ) ;
#213 = CARTESIAN_POINT ( 'NONE',  ( 1.772046959787181407E-14, -6.215504041505835072E-16, 5.075344210129248523 ) ) ;
#214 = CARTESIAN_POINT ( 'NONE',  ( 1.745740669421566678E-14, 0.4684999999999994169, 5.000000000000000000 ) ) ;
#215 = APPROVAL ( #15, 'UNSPECIFIED' ) ;
#216 = CARTESIAN_POINT ( 'NONE',  ( 1.772046959787181407E-14, -6.215504041505835072E-16, 5.075344210129248523 ) ) ;
#217 = APPLICATION_PROTOCOL_DEFINITION ( 'international standard', 'config_control_design', 1994, #26 ) ;
#218 = FACE_BOUND ( 'NONE', #247, .T. ) ;
#219 = COORDINATED_UNIVERSAL_TIME_OFFSET ( 1, 0, .AHEAD. ) ;
#220 = PERSON_AND_ORGANIZATION_ROLE ( 'classification_officer' ) ;
#221 = ORIENTED_EDGE ( 'NONE', *, *, #270, .F. ) ;
#222 = CC_DESIGN_PERSON_AND_ORGANIZATION_ASSIGNMENT ( #301, #109, ( #23 ) ) ;
#223 = ORIENTED_EDGE ( 'NONE', *, *, #200, .F. ) ;
#224 = EDGE_LOOP ( 'NONE', ( #229 ) ) ;
#225 = CC_DESIGN_PERSON_AND_ORGANIZATION_ASSIGNMENT ( #24, #220, ( #258 ) ) ;
#226 = CC_DESIGN_SECURITY_CLASSIFICATION ( #258, ( #233 ) ) ;
#227 = DIRECTION ( 'NONE',  ( 3.491481338843133355E-15, -1.224646799147352961E-16, 1.000000000000000000 ) ) ;
#228 = APPROVAL ( #276, 'UNSPECIFIED' ) ;
#229 = ORIENTED_EDGE ( 'NONE', *, *, #187, .T. ) ;
#230 = VERTEX_POINT ( 'NONE', #209 ) ;
#231 = DIRECTION ( 'NONE',  ( -3.491481338843133355E-15, 1.224646799147352961E-16, -1.000000000000000000 ) ) ;
#232 = APPROVAL_PERSON_ORGANIZATION ( #50, #215, #91 ) ;
#233 = PRODUCT_DEFINITION_FORMATION_WITH_SPECIFIED_SOURCE ( 'ANY', '', #277, .NOT_KNOWN. ) ;
#234 = CYLINDRICAL_SURFACE ( 'NONE', #152, 0.4249999999999996003 ) ;
#235 = DIRECTION ( 'NONE',  ( -3.491481338843133355E-15, 1.224646799147352961E-16, -1.000000000000000000 ) ) ;
#236 = CARTESIAN_POINT ( 'NONE',  ( 3.491481338843133986E-14, -1.224646799147353256E-15, 10.00000000000000178 ) ) ;
#237 = AXIS2_PLACEMENT_3D ( 'NONE', #137, #227, #82 ) ;
#238 = DATE_AND_TIME ( #268, #14 ) ;
#239 =( LENGTH_UNIT ( ) NAMED_UNIT ( * ) SI_UNIT ( .MILLI., .METRE. ) );
#240 = DIRECTION ( 'NONE',  ( -3.491481338843133355E-15, 1.224646799147352961E-16, -1.000000000000000000 ) ) ;
#241 = ADVANCED_FACE ( 'NONE', ( #185, #103 ), #256, .T. ) ;
#242 = DATE_TIME_ROLE ( 'creation_date' ) ;
#243 = CALENDAR_DATE ( 2021, 29, 11 ) ;
#244 = CONICAL_SURFACE ( 'NONE', #196, 0.4684999999999994169, 0.5235987755982925984 ) ;
#245 = ADVANCED_FACE ( 'NONE', ( #144 ), #57, .F. ) ;
#246 = EDGE_LOOP ( 'NONE', ( #151 ) ) ;
#247 = EDGE_LOOP ( 'NONE', ( #94 ) ) ;
#248 = AXIS2_PLACEMENT_3D ( 'NONE', #7, #2, #285 ) ;
#249 = CALENDAR_DATE ( 2021, 29, 11 ) ;
#250 = AXIS2_PLACEMENT_3D ( 'NONE', #37, #211, #8 ) ;
#251 = LOCAL_TIME ( 15, 49, 34.00000000000000000, #293 ) ;
#252 = DATE_AND_TIME ( #55, #163 ) ;
#253 = EDGE_CURVE ( 'NONE', #66, #66, #68, .T. ) ;
#254 = VERTEX_POINT ( 'NONE', #125 ) ;
#255 = CC_DESIGN_PERSON_AND_ORGANIZATION_ASSIGNMENT ( #47, #112, ( #233 ) ) ;
#256 = CYLINDRICAL_SURFACE ( 'NONE', #292, 0.4684999999999997500 ) ;
#257 = CLOSED_SHELL ( 'NONE', ( #281, #42, #303, #198, #124, #53, #69, #245 ) ) ;
#258 = SECURITY_CLASSIFICATION ( '', '', #290 ) ;
#259 = DIRECTION ( 'NONE',  ( -3.491481338843133355E-15, 1.224646799147352961E-16, -1.000000000000000000 ) ) ;
#260 = DIRECTION ( 'NONE',  ( -4.275831445896957731E-31, -1.000000000000000000, -1.224646799147352961E-16 ) ) ;
#261 = FACE_OUTER_BOUND ( 'NONE', #154, .T. ) ;
#262 = DIRECTION ( 'NONE',  ( 0.0000000000000000000, 1.000000000000000000, 0.0000000000000000000 ) ) ;
#263 = DIRECTION ( 'NONE',  ( 1.000000000000000000, 0.0000000000000000000, 0.0000000000000000000 ) ) ;
#264 = AXIS2_PLACEMENT_3D ( 'NONE', #213, #9, #111 ) ;
#265 = DATE_AND_TIME ( #249, #142 ) ;
#266 = CC_DESIGN_DATE_AND_TIME_ASSIGNMENT ( #194, #170, ( #258 ) ) ;
#267 = DIRECTION ( 'NONE',  ( 0.0000000000000000000, 1.000000000000000000, 0.0000000000000000000 ) ) ;
#268 = CALENDAR_DATE ( 2021, 29, 11 ) ;
#269 =( NAMED_UNIT ( * ) PLANE_ANGLE_UNIT ( ) SI_UNIT ( $, .RADIAN. ) );
#270 = EDGE_CURVE ( 'NONE', #175, #175, #126, .T. ) ;
#271 = EDGE_LOOP ( 'NONE', ( #81 ) ) ;
#272 = CIRCLE ( 'NONE', #102, 1.499999999999997335 ) ;
#273 = ORIENTED_EDGE ( 'NONE', *, *, #171, .F. ) ;
#274 =( NAMED_UNIT ( * ) SI_UNIT ( $, .STERADIAN. ) SOLID_ANGLE_UNIT ( ) );
#275 = ORIENTED_EDGE ( 'NONE', *, *, #150, .F. ) ;
#276 = APPROVAL_STATUS ( 'not_yet_approved' ) ;
#277 = PRODUCT ( '960023', '960023', '', ( #172 ) ) ;
#278 = CARTESIAN_POINT ( 'NONE',  ( 0.0000000000000000000, 0.0000000000000000000, 0.0000000000000000000 ) ) ;
#279 = DESIGN_CONTEXT ( 'detailed design', #92, 'design' ) ;
#280 = VERTEX_POINT ( 'NONE', #80 ) ;
#281 = ADVANCED_FACE ( 'NONE', ( #184 ), #59, .F. ) ;
#282 = DIRECTION ( 'NONE',  ( 3.491481338843133355E-15, -1.224646799147352961E-16, 1.000000000000000000 ) ) ;
#283 = DIRECTION ( 'NONE',  ( -3.491481338843133355E-15, 1.224646799147352961E-16, -1.000000000000000000 ) ) ;
#284 = CYLINDRICAL_SURFACE ( 'NONE', #118, 1.500000000000000444 ) ;
#285 = DIRECTION ( 'NONE',  ( -4.275831445896957731E-31, -1.000000000000000000, -1.224646799147352961E-16 ) ) ;
#286 = FACE_BOUND ( 'NONE', #297, .T. ) ;
#287 = CARTESIAN_POINT ( 'NONE',  ( 1.745740669421566678E-14, -6.123233995736765296E-16, 5.000000000000000000 ) ) ;
#288 = COORDINATED_UNIVERSAL_TIME_OFFSET ( 1, 0, .AHEAD. ) ;
#289 = DIRECTION ( 'NONE',  ( 0.0000000000000000000, -1.000000000000000000, 0.0000000000000000000 ) ) ;
#290 = SECURITY_CLASSIFICATION_LEVEL ( 'unclassified' ) ;
#291 = DIRECTION ( 'NONE',  ( -3.491481338843133355E-15, 1.224646799147352961E-16, -1.000000000000000000 ) ) ;
#292 = AXIS2_PLACEMENT_3D ( 'NONE', #61, #283, #212 ) ;
#293 = COORDINATED_UNIVERSAL_TIME_OFFSET ( 1, 0, .AHEAD. ) ;
#294 = APPROVAL_PERSON_ORGANIZATION ( #115, #228, #138 ) ;
#295 = DIRECTION ( 'NONE',  ( 0.0000000000000000000, 1.000000000000000000, 0.0000000000000000000 ) ) ;
#296 = ADVANCED_FACE ( 'NONE', ( #99 ), #139, .T. ) ;
#297 = EDGE_LOOP ( 'NONE', ( #275 ) ) ;
#298 = CONICAL_SURFACE ( 'NONE', #133, 1.499999999999997335, 0.1745329251994262587 ) ;
#299 = CC_DESIGN_APPROVAL ( #215, ( #23 ) ) ;
#300 = PERSON ( 'UNSPECIFIED', 'UNSPECIFIED', 'UNSPECIFIED', ('UNSPECIFIED'), ('UNSPECIFIED'), ('UNSPECIFIED') ) ;
#301 = PERSON_AND_ORGANIZATION ( #300, #123 ) ;
#302 = CIRCLE ( 'NONE', #36, 0.4685000000000000275 ) ;
#303 = ADVANCED_FACE ( 'NONE', ( #162, #143 ), #234, .T. ) ;
ENDSEC;
END-ISO-10303-21;
