ISO-10303-21;
HEADER;
FILE_DESCRIPTION (( 'STEP AP203' ),
    '1' );
FILE_NAME ('96.step',
    '2021-10-06T11:26:39',
    ( '' ),
    ( '' ),
    'SwSTEP 2.0',
    'SolidWorks 2019',
    '' );
FILE_SCHEMA (( 'CONFIG_CONTROL_DESIGN' ));
ENDSEC;

DATA;
#1 = FACE_OUTER_BOUND ( 'NONE', #79, .T. ) ;
#2 = AXIS2_PLACEMENT_3D ( 'NONE', #67, #47, #38 ) ;
#3 = DIRECTION ( 'NONE',  ( 0.0000000000000000000, 1.000000000000000000, 0.0000000000000000000 ) ) ;
#4 = ADVANCED_FACE ( 'NONE', ( #8 ), #96, .T. ) ;
#5 = APPLICATION_PROTOCOL_DEFINITION ( 'international standard', 'config_control_design', 1994, #117 ) ;
#6 = CC_DESIGN_APPROVAL ( #45, ( #69 ) ) ;
#7 = VERTEX_POINT ( 'NONE', #180 ) ;
#8 = FACE_OUTER_BOUND ( 'NONE', #162, .T. ) ;
#9 = EDGE_CURVE ( 'NONE', #57, #57, #164, .T. ) ;
#10 = APPLICATION_PROTOCOL_DEFINITION ( 'international standard', 'config_control_design', 1994, #104 ) ;
#11 = CC_DESIGN_APPROVAL ( #24, ( #40 ) ) ;
#12 = PERSON_AND_ORGANIZATION ( #191, #16 ) ;
#13 = ORIENTED_EDGE ( 'NONE', *, *, #78, .F. ) ;
#14 =( NAMED_UNIT ( * ) SI_UNIT ( $, .STERADIAN. ) SOLID_ANGLE_UNIT ( ) );
#15 = PERSON_AND_ORGANIZATION ( #191, #16 ) ;
#16 = ORGANIZATION ( 'UNSPECIFIED', 'UNSPECIFIED', '' ) ;
#17 = APPROVAL_DATE_TIME ( #102, #45 ) ;
#18 = EDGE_LOOP ( 'NONE', ( #184 ) ) ;
#19 = DIRECTION ( 'NONE',  ( -5.135813185032692584E-31, -1.000000000000000000, -1.445602896647357159E-16 ) ) ;
#20 = EDGE_LOOP ( 'NONE', ( #49 ) ) ;
#21 = PERSON_AND_ORGANIZATION ( #191, #16 ) ;
#22 = EDGE_LOOP ( 'NONE', ( #51 ) ) ;
#23 = CC_DESIGN_SECURITY_CLASSIFICATION ( #40, ( #170 ) ) ;
#24 = APPROVAL ( #71, 'UNSPECIFIED' ) ;
#25 = DIRECTION ( 'NONE',  ( -3.491481338843133355E-15, 1.224646799147353207E-16, -1.000000000000000000 ) ) ;
#26 = LOCAL_TIME ( 13, 26, 39.00000000000000000, #50 ) ;
#27 =( NAMED_UNIT ( * ) PLANE_ANGLE_UNIT ( ) SI_UNIT ( $, .RADIAN. ) );
#28 = CARTESIAN_POINT ( 'NONE',  ( 0.0000000000000000000, 0.0000000000000000000, 0.0000000000000000000 ) ) ;
#29 = VERTEX_POINT ( 'NONE', #89 ) ;
#30 = PLANE ( 'NONE',  #73 ) ;
#31 = CIRCLE ( 'NONE', #181, 0.3749999999999953371 ) ;
#32 = DATE_TIME_ROLE ( 'creation_date' ) ;
#33 = CARTESIAN_POINT ( 'NONE',  ( 6.105391824779331014E-16, -2.141483178665316063E-17, 0.1748653718081245867 ) ) ;
#34 = PRODUCT ( '96', '96', '', ( #142 ) ) ;
#35 = DIRECTION ( 'NONE',  ( 3.491481338843133355E-15, -1.224646799147353207E-16, 1.000000000000000000 ) ) ;
#36 = ADVANCED_BREP_SHAPE_REPRESENTATION ( '96', ( #54, #185, #151 ), #178 ) ;
#37 = ORIENTED_EDGE ( 'NONE', *, *, #155, .T. ) ;
#38 = DIRECTION ( 'NONE',  ( 4.275831445896958607E-31, 1.000000000000000000, 1.224646799147353207E-16 ) ) ;
#39 = ADVANCED_FACE ( 'NONE', ( #53, #121 ), #166, .T. ) ;
#40 = SECURITY_CLASSIFICATION ( '', '', #63 ) ;
#41 =( LENGTH_UNIT ( ) NAMED_UNIT ( * ) SI_UNIT ( .MILLI., .METRE. ) );
#42 = FACE_OUTER_BOUND ( 'NONE', #93, .T. ) ;
#43 = CYLINDRICAL_SURFACE ( 'NONE', #116, 0.3749999999999961142 ) ;
#44 = EDGE_CURVE ( 'NONE', #161, #161, #31, .T. ) ;
#45 = APPROVAL ( #59, 'UNSPECIFIED' ) ;
#46 = CALENDAR_DATE ( 2021, 6, 10 ) ;
#47 = DIRECTION ( 'NONE',  ( -3.491481338843133355E-15, 1.224646799147353207E-16, -1.000000000000000000 ) ) ;
#48 = COORDINATED_UNIVERSAL_TIME_OFFSET ( 1, 0, .AHEAD. ) ;
#49 = ORIENTED_EDGE ( 'NONE', *, *, #9, .F. ) ;
#50 = COORDINATED_UNIVERSAL_TIME_OFFSET ( 1, 0, .AHEAD. ) ;
#51 = ORIENTED_EDGE ( 'NONE', *, *, #44, .F. ) ;
#52 = ORIENTED_EDGE ( 'NONE', *, *, #9, .T. ) ;
#53 = FACE_OUTER_BOUND ( 'NONE', #18, .T. ) ;
#54 = MANIFOLD_SOLID_BREP ( 'Corps-Déplacer/Copier1[1]', #175 ) ;
#55 = DESIGN_CONTEXT ( 'detailed design', #117, 'design' ) ;
#56 = DIRECTION ( 'NONE',  ( -3.491481338843133355E-15, 1.224646799147353207E-16, -1.000000000000000000 ) ) ;
#57 = VERTEX_POINT ( 'NONE', #122 ) ;
#58 = CIRCLE ( 'NONE', #68, 0.3749999999999968914 ) ;
#59 = APPROVAL_STATUS ( 'not_yet_approved' ) ;
#60 = CC_DESIGN_DATE_AND_TIME_ASSIGNMENT ( #183, #32, ( #69 ) ) ;
#61 = DIRECTION ( 'NONE',  ( 1.000000000000000000, 0.0000000000000000000, 0.0000000000000000000 ) ) ;
#62 = ADVANCED_FACE ( 'NONE', ( #168 ), #30, .T. ) ;
#63 = SECURITY_CLASSIFICATION_LEVEL ( 'unclassified' ) ;
#64 = PLANE ( 'NONE',  #94 ) ;
#65 = CIRCLE ( 'NONE', #112, 0.3749999999999968914 ) ;
#66 = AXIS2_PLACEMENT_3D ( 'NONE', #33, #158, #19 ) ;
#67 = CARTESIAN_POINT ( 'NONE',  ( 0.0000000000000000000, 0.0000000000000000000, 0.0000000000000000000 ) ) ;
#68 = AXIS2_PLACEMENT_3D ( 'NONE', #91, #95, #146 ) ;
#69 = PRODUCT_DEFINITION ( 'UNKNOWN', '', #170, #55 ) ;
#70 = CARTESIAN_POINT ( 'NONE',  ( 1.326762908760390423E-13, -4.653657836759941941E-15, 38.00000000000000000 ) ) ;
#71 = APPROVAL_STATUS ( 'not_yet_approved' ) ;
#72 = CC_DESIGN_PERSON_AND_ORGANIZATION_ASSIGNMENT ( #15, #80, ( #170 ) ) ;
#73 = AXIS2_PLACEMENT_3D ( 'NONE', #115, #35, #144 ) ;
#74 = CARTESIAN_POINT ( 'NONE',  ( 1.326762908760390423E-13, 0.2749999999999953593, 38.00000000000000000 ) ) ;
#75 = APPROVAL_ROLE ( '' ) ;
#76 = PERSON_AND_ORGANIZATION_ROLE ( 'creator' ) ;
#77 = DIRECTION ( 'NONE',  ( 0.0000000000000000000, 0.0000000000000000000, 1.000000000000000000 ) ) ;
#78 = EDGE_CURVE ( 'NONE', #29, #29, #58, .T. ) ;
#79 = EDGE_LOOP ( 'NONE', ( #171 ) ) ;
#80 = PERSON_AND_ORGANIZATION_ROLE ( 'creator' ) ;
#81 = DIRECTION ( 'NONE',  ( -3.491481338843133355E-15, 1.224646799147353207E-16, -1.000000000000000000 ) ) ;
#82 = ORIENTED_EDGE ( 'NONE', *, *, #109, .F. ) ;
#83 = DIRECTION ( 'NONE',  ( -3.491481338843133355E-15, 1.224646799147353207E-16, -1.000000000000000000 ) ) ;
#84 = AXIS2_PLACEMENT_3D ( 'NONE', #85, #176, #3 ) ;
#85 = CARTESIAN_POINT ( 'NONE',  ( 1.326762908760390423E-13, -4.653657836759941941E-15, 38.00000000000000000 ) ) ;
#86 = SHAPE_DEFINITION_REPRESENTATION ( #182, #36 ) ;
#87 = ADVANCED_FACE ( 'NONE', ( #201 ), #64, .F. ) ;
#88 = COORDINATED_UNIVERSAL_TIME_OFFSET ( 1, 0, .AHEAD. ) ;
#89 = CARTESIAN_POINT ( 'NONE',  ( 4.538925740496073362E-14, 0.3749999999999953371, 13.00000000000000000 ) ) ;
#90 = LOCAL_TIME ( 13, 26, 39.00000000000000000, #128 ) ;
#91 = CARTESIAN_POINT ( 'NONE',  ( 4.538925740496073362E-14, -1.592040838891559095E-15, 13.00000000000000000 ) ) ;
#92 = ORIENTED_EDGE ( 'NONE', *, *, #109, .T. ) ;
#93 = EDGE_LOOP ( 'NONE', ( #37 ) ) ;
#94 = AXIS2_PLACEMENT_3D ( 'NONE', #118, #81, #174 ) ;
#95 = DIRECTION ( 'NONE',  ( -3.491481338843133355E-15, 1.224646799147353207E-16, -1.000000000000000000 ) ) ;
#96 = CONICAL_SURFACE ( 'NONE', #66, 0.3749999999999953371, 1.134464013796309123 ) ;
#97 = CARTESIAN_POINT ( 'NONE',  ( 6.105391824779331014E-16, -2.141483178665316063E-17, 0.1748653718081245867 ) ) ;
#98 = PERSON_AND_ORGANIZATION_ROLE ( 'design_supplier' ) ;
#99 = DATE_AND_TIME ( #132, #119 ) ;
#100 = DIRECTION ( 'NONE',  ( -3.491481338843133355E-15, 1.224646799147353207E-16, -1.000000000000000000 ) ) ;
#101 = UNCERTAINTY_MEASURE_WITH_UNIT (LENGTH_MEASURE( 1.000000000000000082E-05 ), #41, 'distance_accuracy_value', 'NONE');
#102 = DATE_AND_TIME ( #177, #90 ) ;
#103 = FACE_BOUND ( 'NONE', #126, .T. ) ;
#104 = APPLICATION_CONTEXT ( 'configuration controlled 3d designs of mechanical parts and assemblies' ) ;
#105 = CC_DESIGN_APPROVAL ( #139, ( #170 ) ) ;
#106 = CARTESIAN_POINT ( 'NONE',  ( 4.538925740496073362E-14, -1.592040838891559095E-15, 13.00000000000000000 ) ) ;
#107 = AXIS2_PLACEMENT_3D ( 'NONE', #203, #152, #123 ) ;
#108 = APPROVAL_DATE_TIME ( #137, #24 ) ;
#109 = EDGE_CURVE ( 'NONE', #153, #153, #199, .T. ) ;
#110 = APPROVAL_ROLE ( '' ) ;
#111 = DIRECTION ( 'NONE',  ( 5.135813185032692584E-31, 1.000000000000000000, 1.445602896647357159E-16 ) ) ;
#112 = AXIS2_PLACEMENT_3D ( 'NONE', #106, #56, #120 ) ;
#113 = APPROVAL_DATE_TIME ( #186, #139 ) ;
#114 = CC_DESIGN_PERSON_AND_ORGANIZATION_ASSIGNMENT ( #130, #154, ( #40 ) ) ;
#115 = CARTESIAN_POINT ( 'NONE',  ( 4.538925740496073362E-14, 2.812049592490936145E-33, 13.00000000000000000 ) ) ;
#116 = AXIS2_PLACEMENT_3D ( 'NONE', #193, #83, #163 ) ;
#117 = APPLICATION_CONTEXT ( 'configuration controlled 3d designs of mechanical parts and assemblies' ) ;
#118 = CARTESIAN_POINT ( 'NONE',  ( 1.326762908760390423E-13, 2.062169701159984420E-33, 38.00000000000000000 ) ) ;
#119 = LOCAL_TIME ( 13, 26, 39.00000000000000000, #138 ) ;
#120 = DIRECTION ( 'NONE',  ( 0.0000000000000000000, 1.000000000000000000, 0.0000000000000000000 ) ) ;
#121 = FACE_OUTER_BOUND ( 'NONE', #141, .T. ) ;
#122 = CARTESIAN_POINT ( 'NONE',  ( 1.323271427421547605E-13, 0.3749999999999953371, 37.89999999999999858 ) ) ;
#123 = DIRECTION ( 'NONE',  ( -4.275831445896958607E-31, -1.000000000000000000, -1.224646799147353207E-16 ) ) ;
#124 = AXIS2_PLACEMENT_3D ( 'NONE', #70, #136, #159 ) ;
#125 = CALENDAR_DATE ( 2021, 6, 10 ) ;
#126 = EDGE_LOOP ( 'NONE', ( #92 ) ) ;
#127 = APPROVAL_STATUS ( 'not_yet_approved' ) ;
#128 = COORDINATED_UNIVERSAL_TIME_OFFSET ( 1, 0, .AHEAD. ) ;
#129 = CLOSED_SHELL ( 'NONE', ( #4, #189, #62 ) ) ;
#130 = PERSON_AND_ORGANIZATION ( #191, #16 ) ;
#131 = CC_DESIGN_PERSON_AND_ORGANIZATION_ASSIGNMENT ( #172, #167, ( #34 ) ) ;
#132 = CALENDAR_DATE ( 2021, 6, 10 ) ;
#133 = LOCAL_TIME ( 13, 26, 39.00000000000000000, #88 ) ;
#134 = FACE_OUTER_BOUND ( 'NONE', #20, .T. ) ;
#135 = ADVANCED_FACE ( 'NONE', ( #42 ), #196, .F. ) ;
#136 = DIRECTION ( 'NONE',  ( -3.491481338843133355E-15, 1.224646799147353207E-16, -1.000000000000000000 ) ) ;
#137 = DATE_AND_TIME ( #125, #133 ) ;
#138 = COORDINATED_UNIVERSAL_TIME_OFFSET ( 1, 0, .AHEAD. ) ;
#139 = APPROVAL ( #127, 'UNSPECIFIED' ) ;
#140 = CALENDAR_DATE ( 2021, 6, 10 ) ;
#141 = EDGE_LOOP ( 'NONE', ( #52 ) ) ;
#142 = MECHANICAL_CONTEXT ( 'NONE', #104, 'mechanical' ) ;
#143 = APPROVAL_PERSON_ORGANIZATION ( #12, #139, #75 ) ;
#144 = DIRECTION ( 'NONE',  ( -4.275831445896958607E-31, -1.000000000000000000, -1.224646799147353207E-16 ) ) ;
#145 = DATE_TIME_ROLE ( 'classification_date' ) ;
#146 = DIRECTION ( 'NONE',  ( 0.0000000000000000000, 1.000000000000000000, 0.0000000000000000000 ) ) ;
#147 = CONICAL_SURFACE ( 'NONE', #124, 0.2750000000000000222, 0.7853981633974339571 ) ;
#148 = PRODUCT_RELATED_PRODUCT_CATEGORY ( 'detail', '', ( #34 ) ) ;
#149 = PERSON_AND_ORGANIZATION ( #191, #16 ) ;
#150 = ADVANCED_FACE ( 'NONE', ( #134, #103 ), #147, .T. ) ;
#151 = AXIS2_PLACEMENT_3D ( 'NONE', #28, #77, #61 ) ;
#152 = DIRECTION ( 'NONE',  ( 3.491481338843133355E-15, -1.224646799147353207E-16, 1.000000000000000000 ) ) ;
#153 = VERTEX_POINT ( 'NONE', #74 ) ;
#154 = PERSON_AND_ORGANIZATION_ROLE ( 'classification_officer' ) ;
#155 = EDGE_CURVE ( 'NONE', #7, #7, #65, .T. ) ;
#156 = EDGE_LOOP ( 'NONE', ( #82 ) ) ;
#157 = EDGE_LOOP ( 'NONE', ( #13 ) ) ;
#158 = DIRECTION ( 'NONE',  ( 3.491481338843133355E-15, -1.224646799147353207E-16, 1.000000000000000000 ) ) ;
#159 = DIRECTION ( 'NONE',  ( 0.0000000000000000000, 1.000000000000000000, 0.0000000000000000000 ) ) ;
#160 = CC_DESIGN_DATE_AND_TIME_ASSIGNMENT ( #99, #145, ( #40 ) ) ;
#161 = VERTEX_POINT ( 'NONE', #195 ) ;
#162 = EDGE_LOOP ( 'NONE', ( #188 ) ) ;
#163 = DIRECTION ( 'NONE',  ( 4.275831445896958607E-31, 1.000000000000000000, 1.224646799147353207E-16 ) ) ;
#164 = CIRCLE ( 'NONE', #169, 0.3750000000000000000 ) ;
#165 = CC_DESIGN_PERSON_AND_ORGANIZATION_ASSIGNMENT ( #187, #76, ( #69 ) ) ;
#166 = CYLINDRICAL_SURFACE ( 'NONE', #2, 0.3749999999999985012 ) ;
#167 = PERSON_AND_ORGANIZATION_ROLE ( 'design_owner' ) ;
#168 = FACE_OUTER_BOUND ( 'NONE', #157, .T. ) ;
#169 = AXIS2_PLACEMENT_3D ( 'NONE', #202, #25, #198 ) ;
#170 = PRODUCT_DEFINITION_FORMATION_WITH_SPECIFIED_SOURCE ( 'ANY', '', #34, .NOT_KNOWN. ) ;
#171 = ORIENTED_EDGE ( 'NONE', *, *, #78, .T. ) ;
#172 = PERSON_AND_ORGANIZATION ( #191, #16 ) ;
#173 = APPROVAL_PERSON_ORGANIZATION ( #200, #45, #110 ) ;
#174 = DIRECTION ( 'NONE',  ( 4.275831445896958607E-31, 1.000000000000000000, 1.224646799147353207E-16 ) ) ;
#175 = CLOSED_SHELL ( 'NONE', ( #135, #39, #150, #87 ) ) ;
#176 = DIRECTION ( 'NONE',  ( -3.491481338843133355E-15, 1.224646799147353207E-16, -1.000000000000000000 ) ) ;
#177 = CALENDAR_DATE ( 2021, 6, 10 ) ;
#178 =( GEOMETRIC_REPRESENTATION_CONTEXT ( 3 ) GLOBAL_UNCERTAINTY_ASSIGNED_CONTEXT ( ( #101 ) ) GLOBAL_UNIT_ASSIGNED_CONTEXT ( ( #41, #27, #14 ) ) REPRESENTATION_CONTEXT ( 'NONE', 'WORKASPACE' ) );
#179 = FACE_OUTER_BOUND ( 'NONE', #22, .T. ) ;
#180 = CARTESIAN_POINT ( 'NONE',  ( 4.538925740496073362E-14, 0.3749999999999953371, 13.00000000000000000 ) ) ;
#181 = AXIS2_PLACEMENT_3D ( 'NONE', #97, #100, #111 ) ;
#182 = PRODUCT_DEFINITION_SHAPE ( 'NONE', 'NONE',  #69 ) ;
#183 = DATE_AND_TIME ( #46, #26 ) ;
#184 = ORIENTED_EDGE ( 'NONE', *, *, #155, .F. ) ;
#185 = MANIFOLD_SOLID_BREP ( 'Corps-Déplacer/Copier1[2]', #129 ) ;
#186 = DATE_AND_TIME ( #140, #190 ) ;
#187 = PERSON_AND_ORGANIZATION ( #191, #16 ) ;
#188 = ORIENTED_EDGE ( 'NONE', *, *, #44, .T. ) ;
#189 = ADVANCED_FACE ( 'NONE', ( #179, #1 ), #43, .T. ) ;
#190 = LOCAL_TIME ( 13, 26, 39.00000000000000000, #48 ) ;
#191 = PERSON ( 'UNSPECIFIED', 'UNSPECIFIED', 'UNSPECIFIED', ('UNSPECIFIED'), ('UNSPECIFIED'), ('UNSPECIFIED') ) ;
#192 = CC_DESIGN_PERSON_AND_ORGANIZATION_ASSIGNMENT ( #21, #98, ( #170 ) ) ;
#193 = CARTESIAN_POINT ( 'NONE',  ( 0.0000000000000000000, 0.0000000000000000000, 0.0000000000000000000 ) ) ;
#194 = APPROVAL_ROLE ( '' ) ;
#195 = CARTESIAN_POINT ( 'NONE',  ( 6.105391824779332986E-16, 0.3749999999999953371, 0.1748653718081246422 ) ) ;
#196 = PLANE ( 'NONE',  #107 ) ;
#197 = APPROVAL_PERSON_ORGANIZATION ( #149, #24, #194 ) ;
#198 = DIRECTION ( 'NONE',  ( 0.0000000000000000000, 1.000000000000000000, 0.0000000000000000000 ) ) ;
#199 = CIRCLE ( 'NONE', #84, 0.2750000000000000222 ) ;
#200 = PERSON_AND_ORGANIZATION ( #191, #16 ) ;
#201 = FACE_OUTER_BOUND ( 'NONE', #156, .T. ) ;
#202 = CARTESIAN_POINT ( 'NONE',  ( 1.323271427421547605E-13, -4.641411368768468584E-15, 37.89999999999999858 ) ) ;
#203 = CARTESIAN_POINT ( 'NONE',  ( 4.538925740496073362E-14, 2.812049592490936145E-33, 13.00000000000000000 ) ) ;
ENDSEC;
END-ISO-10303-21;
