ISO-10303-21;
HEADER;
FILE_DESCRIPTION (( 'STEP AP203' ),
    '1' );
FILE_NAME ('959805.step',
    '2021-11-26T14:47:29',
    ( '' ),
    ( '' ),
    'SwSTEP 2.0',
    'SolidWorks 2019',
    '' );
FILE_SCHEMA (( 'CONFIG_CONTROL_DESIGN' ));
ENDSEC;

DATA;
#1 = EDGE_CURVE ( 'NONE', #48, #48, #203, .T. ) ;
#2 = EDGE_LOOP ( 'NONE', ( #238 ) ) ;
#3 = CARTESIAN_POINT ( 'NONE',  ( 1.745740669421566678E-14, -4.336808689942017736E-16, 5.000000000000000000 ) ) ;
#4 = ORIENTED_EDGE ( 'NONE', *, *, #204, .T. ) ;
#5 = AXIS2_PLACEMENT_3D ( 'NONE', #276, #11, #241 ) ;
#6 = APPROVAL_ROLE ( '' ) ;
#7 = DATE_AND_TIME ( #273, #180 ) ;
#8 = PRODUCT ( '959805', '959805', '', ( #261 ) ) ;
#9 = AXIS2_PLACEMENT_3D ( 'NONE', #130, #23, #19 ) ;
#10 = CC_DESIGN_DATE_AND_TIME_ASSIGNMENT ( #252, #192, ( #101 ) ) ;
#11 = DIRECTION ( 'NONE',  ( 3.491481338843133355E-15, -1.224646799147352961E-16, 1.000000000000000000 ) ) ;
#12 = UNCERTAINTY_MEASURE_WITH_UNIT (LENGTH_MEASURE( 1.000000000000000082E-05 ), #145, 'distance_accuracy_value', 'NONE');
#13 = DIRECTION ( 'NONE',  ( -3.491481338843133355E-15, 1.224646799147352961E-16, -1.000000000000000000 ) ) ;
#14 = CIRCLE ( 'NONE', #189, 0.2434999999999999942 ) ;
#15 = AXIS2_PLACEMENT_3D ( 'NONE', #110, #206, #153 ) ;
#16 = FACE_OUTER_BOUND ( 'NONE', #127, .T. ) ;
#17 = CARTESIAN_POINT ( 'NONE',  ( 4.294851270214657466E-14, -1.506431038988472175E-15, 12.30094293340176570 ) ) ;
#18 = CONICAL_SURFACE ( 'NONE', #113, 1.499999999999996891, 0.1745329251994262310 ) ;
#19 = DIRECTION ( 'NONE',  ( 4.275831445896957731E-31, 1.000000000000000000, 1.224646799147353207E-16 ) ) ;
#20 = APPROVAL ( #217, 'UNSPECIFIED' ) ;
#21 = DIRECTION ( 'NONE',  ( 0.0000000000000000000, 1.000000000000000000, 0.0000000000000000000 ) ) ;
#22 = PRODUCT_DEFINITION_FORMATION_WITH_SPECIFIED_SOURCE ( 'ANY', '', #8, .NOT_KNOWN. ) ;
#23 = DIRECTION ( 'NONE',  ( -3.491481338843133355E-15, 1.224646799147352961E-16, -1.000000000000000000 ) ) ;
#24 = FACE_OUTER_BOUND ( 'NONE', #233, .T. ) ;
#25 = EDGE_LOOP ( 'NONE', ( #4 ) ) ;
#26 = VERTEX_POINT ( 'NONE', #213 ) ;
#27 = ADVANCED_FACE ( 'NONE', ( #86 ), #125, .F. ) ;
#28 = TOROIDAL_SURFACE ( 'NONE', #147, 2.243500000000000050, 2.000000000000000888 ) ;
#29 =( GEOMETRIC_REPRESENTATION_CONTEXT ( 3 ) GLOBAL_UNCERTAINTY_ASSIGNED_CONTEXT ( ( #12 ) ) GLOBAL_UNIT_ASSIGNED_CONTEXT ( ( #145, #87, #239 ) ) REPRESENTATION_CONTEXT ( 'NONE', 'WORKASPACE' ) );
#30 = COORDINATED_UNIVERSAL_TIME_OFFSET ( 1, 0, .AHEAD. ) ;
#31 = ADVANCED_FACE ( 'NONE', ( #242, #175 ), #18, .T. ) ;
#32 = APPROVAL_STATUS ( 'not_yet_approved' ) ;
#33 = PRODUCT_DEFINITION ( 'UNKNOWN', '', #22, #80 ) ;
#34 = ORIENTED_EDGE ( 'NONE', *, *, #111, .T. ) ;
#35 = CC_DESIGN_SECURITY_CLASSIFICATION ( #101, ( #22 ) ) ;
#36 = PERSON_AND_ORGANIZATION ( #123, #41 ) ;
#37 = ORIENTED_EDGE ( 'NONE', *, *, #151, .T. ) ;
#38 = CLOSED_SHELL ( 'NONE', ( #162, #126, #85, #136 ) ) ;
#39 = CARTESIAN_POINT ( 'NONE',  ( 3.491481338843132862E-16, -1.224646799147352653E-17, 0.09999999999999997780 ) ) ;
#40 = AXIS2_PLACEMENT_3D ( 'NONE', #220, #81, #171 ) ;
#41 = ORGANIZATION ( 'UNSPECIFIED', 'UNSPECIFIED', '' ) ;
#42 = APPROVAL_DATE_TIME ( #169, #49 ) ;
#43 = DIRECTION ( 'NONE',  ( -3.491481338843133355E-15, 1.224646799147352961E-16, -1.000000000000000000 ) ) ;
#44 = DIRECTION ( 'NONE',  ( -3.491481338843133355E-15, 1.224646799147352961E-16, -1.000000000000000000 ) ) ;
#45 = EDGE_CURVE ( 'NONE', #115, #115, #143, .T. ) ;
#46 = DIRECTION ( 'NONE',  ( 0.0000000000000000000, 1.000000000000000000, 0.0000000000000000000 ) ) ;
#47 = CLOSED_SHELL ( 'NONE', ( #27, #245, #131, #31, #209, #77, #65 ) ) ;
#48 = VERTEX_POINT ( 'NONE', #95 ) ;
#49 = APPROVAL ( #102, 'UNSPECIFIED' ) ;
#50 = EDGE_LOOP ( 'NONE', ( #221 ) ) ;
#51 = CARTESIAN_POINT ( 'NONE',  ( 1.326762908760390423E-13, 1.199999999999998845, 38.00000000000000000 ) ) ;
#52 = EDGE_LOOP ( 'NONE', ( #280 ) ) ;
#53 = PERSON_AND_ORGANIZATION_ROLE ( 'creator' ) ;
#54 = AXIS2_PLACEMENT_3D ( 'NONE', #205, #186, #152 ) ;
#55 = PERSON_AND_ORGANIZATION ( #123, #41 ) ;
#56 = ORIENTED_EDGE ( 'NONE', *, *, #1, .T. ) ;
#57 = CC_DESIGN_PERSON_AND_ORGANIZATION_ASSIGNMENT ( #137, #53, ( #33 ) ) ;
#58 = FACE_OUTER_BOUND ( 'NONE', #149, .T. ) ;
#59 = CYLINDRICAL_SURFACE ( 'NONE', #15, 0.2434999999999998554 ) ;
#60 = CONICAL_SURFACE ( 'NONE', #100, 0.2434999999999993558, 0.5235987755982923764 ) ;
#61 = CC_DESIGN_APPROVAL ( #237, ( #22 ) ) ;
#62 = DIRECTION ( 'NONE',  ( 4.400988954572624288E-31, 1.000000000000000000, 1.224646799147352961E-16 ) ) ;
#63 = PERSON_AND_ORGANIZATION_ROLE ( 'design_owner' ) ;
#64 = FACE_BOUND ( 'NONE', #50, .T. ) ;
#65 = ADVANCED_FACE ( 'NONE', ( #58 ), #173, .F. ) ;
#66 = CARTESIAN_POINT ( 'NONE',  ( 1.047444401652940007E-14, 1.825957535390803550E-33, 3.000000000000000000 ) ) ;
#67 = AXIS2_PLACEMENT_3D ( 'NONE', #277, #83, #259 ) ;
#68 = AXIS2_PLACEMENT_3D ( 'NONE', #133, #43, #227 ) ;
#69 = CC_DESIGN_DATE_AND_TIME_ASSIGNMENT ( #139, #141, ( #33 ) ) ;
#70 = VERTEX_POINT ( 'NONE', #72 ) ;
#71 = COORDINATED_UNIVERSAL_TIME_OFFSET ( 1, 0, .AHEAD. ) ;
#72 = CARTESIAN_POINT ( 'NONE',  ( 1.047444401652940007E-14, 0.2434999999999993558, 3.000000000000000000 ) ) ;
#73 = CONICAL_SURFACE ( 'NONE', #199, 1.200000000000003286, 0.7853981633974453924 ) ;
#74 = APPROVAL_PERSON_ORGANIZATION ( #170, #49, #258 ) ;
#75 = CALENDAR_DATE ( 2021, 26, 11 ) ;
#76 = PERSON_AND_ORGANIZATION ( #123, #41 ) ;
#77 = ADVANCED_FACE ( 'NONE', ( #274, #260 ), #73, .T. ) ;
#78 = DIRECTION ( 'NONE',  ( -3.491481338843133355E-15, 1.224646799147352961E-16, -1.000000000000000000 ) ) ;
#79 = LOCAL_TIME ( 15, 47, 29.00000000000000000, #71 ) ;
#80 = DESIGN_CONTEXT ( 'detailed design', #257, 'design' ) ;
#81 = DIRECTION ( 'NONE',  ( -3.491481338843133355E-15, 1.224646799147352961E-16, -1.000000000000000000 ) ) ;
#82 = DIRECTION ( 'NONE',  ( 0.0000000000000000000, 0.0000000000000000000, 1.000000000000000000 ) ) ;
#83 = DIRECTION ( 'NONE',  ( -3.491481338843133355E-15, 1.224646799147352961E-16, -1.000000000000000000 ) ) ;
#84 = LOCAL_TIME ( 15, 47, 29.00000000000000000, #150 ) ;
#85 = ADVANCED_FACE ( 'NONE', ( #256, #16 ), #198, .T. ) ;
#86 = FACE_OUTER_BOUND ( 'NONE', #124, .T. ) ;
#87 =( NAMED_UNIT ( * ) PLANE_ANGLE_UNIT ( ) SI_UNIT ( $, .RADIAN. ) );
#88 = CARTESIAN_POINT ( 'NONE',  ( 1.745740669421566678E-14, -6.123233995736765296E-16, 5.000000000000000000 ) ) ;
#89 = FACE_OUTER_BOUND ( 'NONE', #112, .T. ) ;
#90 = FACE_OUTER_BOUND ( 'NONE', #165, .T. ) ;
#91 = EDGE_LOOP ( 'NONE', ( #185 ) ) ;
#92 = EDGE_LOOP ( 'NONE', ( #120 ) ) ;
#93 = DIRECTION ( 'NONE',  ( -3.491481338843133355E-15, 1.224646799147352961E-16, -1.000000000000000000 ) ) ;
#94 = CIRCLE ( 'NONE', #119, 0.2434999999999997444 ) ;
#95 = CARTESIAN_POINT ( 'NONE',  ( 4.294851270214657466E-14, 1.499999999999995559, 12.30094293340176570 ) ) ;
#96 = CARTESIAN_POINT ( 'NONE',  ( 1.745740669421566678E-14, 0.2434999999999993558, 5.000000000000000000 ) ) ;
#97 = PERSON_AND_ORGANIZATION_ROLE ( 'design_supplier' ) ;
#98 = APPROVAL_DATE_TIME ( #7, #20 ) ;
#99 = EDGE_LOOP ( 'NONE', ( #128 ) ) ;
#100 = AXIS2_PLACEMENT_3D ( 'NONE', #184, #283, #268 ) ;
#101 = SECURITY_CLASSIFICATION ( '', '', #122 ) ;
#102 = APPROVAL_STATUS ( 'not_yet_approved' ) ;
#103 = DIRECTION ( 'NONE',  ( 0.0000000000000000000, -1.000000000000000000, 0.0000000000000000000 ) ) ;
#104 = DIRECTION ( 'NONE',  ( -3.491481338843133355E-15, 1.224646799147352961E-16, -1.000000000000000000 ) ) ;
#105 = AXIS2_PLACEMENT_3D ( 'NONE', #179, #207, #201 ) ;
#106 = CIRCLE ( 'NONE', #240, 0.2738844939755800123 ) ;
#107 = CALENDAR_DATE ( 2021, 26, 11 ) ;
#108 = CARTESIAN_POINT ( 'NONE',  ( -6.337418350209464305E-32, 2.222867128372875904E-33, -1.815108756190374986E-17 ) ) ;
#109 = DIRECTION ( 'NONE',  ( 0.0000000000000000000, 1.000000000000000000, 0.0000000000000000000 ) ) ;
#110 = CARTESIAN_POINT ( 'NONE',  ( 0.0000000000000000000, 0.0000000000000000000, 0.0000000000000000000 ) ) ;
#111 = EDGE_CURVE ( 'NONE', #215, #215, #154, .T. ) ;
#112 = EDGE_LOOP ( 'NONE', ( #200 ) ) ;
#113 = AXIS2_PLACEMENT_3D ( 'NONE', #218, #194, #103 ) ;
#114 = PERSON_AND_ORGANIZATION ( #123, #41 ) ;
#115 = VERTEX_POINT ( 'NONE', #229 ) ;
#116 = DATE_AND_TIME ( #118, #196 ) ;
#117 = VERTEX_POINT ( 'NONE', #51 ) ;
#118 = CALENDAR_DATE ( 2021, 26, 11 ) ;
#119 = AXIS2_PLACEMENT_3D ( 'NONE', #248, #244, #21 ) ;
#120 = ORIENTED_EDGE ( 'NONE', *, *, #191, .F. ) ;
#121 = EDGE_CURVE ( 'NONE', #26, #26, #269, .T. ) ;
#122 = SECURITY_CLASSIFICATION_LEVEL ( 'unclassified' ) ;
#123 = PERSON ( 'UNSPECIFIED', 'UNSPECIFIED', 'UNSPECIFIED', ('UNSPECIFIED'), ('UNSPECIFIED'), ('UNSPECIFIED') ) ;
#124 = EDGE_LOOP ( 'NONE', ( #267 ) ) ;
#125 = PLANE ( 'NONE',  #5 ) ;
#126 = ADVANCED_FACE ( 'NONE', ( #64, #89 ), #60, .T. ) ;
#127 = EDGE_LOOP ( 'NONE', ( #34 ) ) ;
#128 = ORIENTED_EDGE ( 'NONE', *, *, #45, .F. ) ;
#129 = CARTESIAN_POINT ( 'NONE',  ( 0.0000000000000000000, 0.0000000000000000000, 0.0000000000000000000 ) ) ;
#130 = CARTESIAN_POINT ( 'NONE',  ( 0.0000000000000000000, 0.0000000000000000000, 0.0000000000000000000 ) ) ;
#131 = ADVANCED_FACE ( 'NONE', ( #225, #228 ), #28, .F. ) ;
#132 = DIRECTION ( 'NONE',  ( -4.275831445896957731E-31, -1.000000000000000000, -1.224646799147352961E-16 ) ) ;
#133 = CARTESIAN_POINT ( 'NONE',  ( -1.267483670041892861E-31, 4.445734256745751808E-33, -3.630217512380749972E-17 ) ) ;
#134 = AXIS2_PLACEMENT_3D ( 'NONE', #108, #263, #132 ) ;
#135 = ORIENTED_EDGE ( 'NONE', *, *, #121, .T. ) ;
#136 = ADVANCED_FACE ( 'NONE', ( #202 ), #270, .T. ) ;
#137 = PERSON_AND_ORGANIZATION ( #123, #41 ) ;
#138 = AXIS2_PLACEMENT_3D ( 'NONE', #226, #243, #109 ) ;
#139 = DATE_AND_TIME ( #75, #172 ) ;
#140 = CC_DESIGN_PERSON_AND_ORGANIZATION_ASSIGNMENT ( #265, #63, ( #8 ) ) ;
#141 = DATE_TIME_ROLE ( 'creation_date' ) ;
#142 = VERTEX_POINT ( 'NONE', #210 ) ;
#143 = CIRCLE ( 'NONE', #247, 0.2434999999999993558 ) ;
#144 = PERSON_AND_ORGANIZATION ( #123, #41 ) ;
#145 =( LENGTH_UNIT ( ) NAMED_UNIT ( * ) SI_UNIT ( .MILLI., .METRE. ) );
#146 = ORIENTED_EDGE ( 'NONE', *, *, #191, .T. ) ;
#147 = AXIS2_PLACEMENT_3D ( 'NONE', #3, #281, #62 ) ;
#148 = DIRECTION ( 'NONE',  ( 0.0000000000000000000, 1.000000000000000000, 0.0000000000000000000 ) ) ;
#149 = EDGE_LOOP ( 'NONE', ( #160 ) ) ;
#150 = COORDINATED_UNIVERSAL_TIME_OFFSET ( 1, 0, .AHEAD. ) ;
#151 = EDGE_CURVE ( 'NONE', #163, #163, #14, .T. ) ;
#152 = DIRECTION ( 'NONE',  ( 0.0000000000000000000, 1.000000000000000000, 0.0000000000000000000 ) ) ;
#153 = DIRECTION ( 'NONE',  ( 4.275831445896957731E-31, 1.000000000000000000, 1.224646799147352714E-16 ) ) ;
#154 = CIRCLE ( 'NONE', #105, 0.2434999999999997444 ) ;
#155 = CC_DESIGN_PERSON_AND_ORGANIZATION_ASSIGNMENT ( #114, #97, ( #22 ) ) ;
#156 = DIRECTION ( 'NONE',  ( 3.491481338843133355E-15, -1.224646799147352961E-16, 1.000000000000000000 ) ) ;
#157 = DIRECTION ( 'NONE',  ( 0.0000000000000000000, 1.000000000000000000, 0.0000000000000000000 ) ) ;
#158 = DIRECTION ( 'NONE',  ( -4.275831445896957731E-31, -1.000000000000000000, -1.224646799147352961E-16 ) ) ;
#159 = CC_DESIGN_APPROVAL ( #20, ( #101 ) ) ;
#160 = ORIENTED_EDGE ( 'NONE', *, *, #182, .F. ) ;
#161 = ORIENTED_EDGE ( 'NONE', *, *, #1, .F. ) ;
#162 = ADVANCED_FACE ( 'NONE', ( #246 ), #177, .F. ) ;
#163 = VERTEX_POINT ( 'NONE', #96 ) ;
#164 = CARTESIAN_POINT ( 'NONE',  ( 1.047444401652940007E-14, 0.2434999999999993558, 3.000000000000000000 ) ) ;
#165 = EDGE_LOOP ( 'NONE', ( #135 ) ) ;
#166 = CC_DESIGN_APPROVAL ( #49, ( #33 ) ) ;
#167 = EDGE_LOOP ( 'NONE', ( #146 ) ) ;
#168 = APPLICATION_CONTEXT ( 'configuration controlled 3d designs of mechanical parts and assemblies' ) ;
#169 = DATE_AND_TIME ( #107, #84 ) ;
#170 = PERSON_AND_ORGANIZATION ( #123, #41 ) ;
#171 = DIRECTION ( 'NONE',  ( 4.275831445896957731E-31, 1.000000000000000000, 1.224646799147352961E-16 ) ) ;
#172 = LOCAL_TIME ( 15, 47, 29.00000000000000000, #231 ) ;
#173 = PLANE ( 'NONE',  #40 ) ;
#174 = APPLICATION_PROTOCOL_DEFINITION ( 'international standard', 'config_control_design', 1994, #257 ) ;
#175 = FACE_OUTER_BOUND ( 'NONE', #208, .T. ) ;
#176 = CC_DESIGN_PERSON_AND_ORGANIZATION_ASSIGNMENT ( #144, #216, ( #101 ) ) ;
#177 = PLANE ( 'NONE',  #134 ) ;
#178 = APPLICATION_PROTOCOL_DEFINITION ( 'international standard', 'config_control_design', 1994, #168 ) ;
#179 = CARTESIAN_POINT ( 'NONE',  ( 1.047444401652940007E-14, -3.673940397442059375E-16, 3.000000000000000000 ) ) ;
#180 = LOCAL_TIME ( 15, 47, 29.00000000000000000, #214 ) ;
#181 = CYLINDRICAL_SURFACE ( 'NONE', #9, 1.500000000000000000 ) ;
#182 = EDGE_CURVE ( 'NONE', #117, #117, #272, .T. ) ;
#183 = EDGE_LOOP ( 'NONE', ( #223 ) ) ;
#184 = CARTESIAN_POINT ( 'NONE',  ( 3.491481338843132862E-16, -1.224646799147352653E-17, 0.09999999999999997780 ) ) ;
#185 = ORIENTED_EDGE ( 'NONE', *, *, #121, .F. ) ;
#186 = DIRECTION ( 'NONE',  ( -3.491481338843133355E-15, 1.224646799147352961E-16, -1.000000000000000000 ) ) ;
#187 = VERTEX_POINT ( 'NONE', #232 ) ;
#188 = APPROVAL_ROLE ( '' ) ;
#189 = AXIS2_PLACEMENT_3D ( 'NONE', #88, #44, #157 ) ;
#190 = APPROVAL_DATE_TIME ( #116, #237 ) ;
#191 = EDGE_CURVE ( 'NONE', #142, #142, #106, .T. ) ;
#192 = DATE_TIME_ROLE ( 'classification_date' ) ;
#193 = ADVANCED_BREP_SHAPE_REPRESENTATION ( '959805', ( #219, #222, #234 ), #29 ) ;
#194 = DIRECTION ( 'NONE',  ( 3.491481338843133355E-15, -1.224646799147352961E-16, 1.000000000000000000 ) ) ;
#195 = AXIS2_PLACEMENT_3D ( 'NONE', #17, #104, #148 ) ;
#196 = LOCAL_TIME ( 15, 47, 29.00000000000000000, #30 ) ;
#197 = DIRECTION ( 'NONE',  ( 3.954681610651418514E-31, 1.000000000000000000, 1.113143914256167585E-16 ) ) ;
#198 = CYLINDRICAL_SURFACE ( 'NONE', #67, 0.2434999999999995501 ) ;
#199 = AXIS2_PLACEMENT_3D ( 'NONE', #275, #78, #236 ) ;
#200 = ORIENTED_EDGE ( 'NONE', *, *, #45, .T. ) ;
#201 = DIRECTION ( 'NONE',  ( 0.0000000000000000000, 1.000000000000000000, 0.0000000000000000000 ) ) ;
#202 = FACE_OUTER_BOUND ( 'NONE', #183, .T. ) ;
#203 = CIRCLE ( 'NONE', #195, 1.499999999999996891 ) ;
#204 = EDGE_CURVE ( 'NONE', #187, #187, #249, .T. ) ;
#205 = CARTESIAN_POINT ( 'NONE',  ( 1.316288464743861212E-13, -4.616918432785520292E-15, 37.69999999999999574 ) ) ;
#206 = DIRECTION ( 'NONE',  ( -3.491481338843133355E-15, 1.224646799147352961E-16, -1.000000000000000000 ) ) ;
#207 = DIRECTION ( 'NONE',  ( -3.491481338843133355E-15, 1.224646799147352961E-16, -1.000000000000000000 ) ) ;
#208 = EDGE_LOOP ( 'NONE', ( #56 ) ) ;
#209 = ADVANCED_FACE ( 'NONE', ( #24, #90 ), #181, .T. ) ;
#210 = CARTESIAN_POINT ( 'NONE',  ( 1.866998543791203065E-14, 0.2738844939755793462, 5.347296355333847728 ) ) ;
#211 = APPROVAL_PERSON_ORGANIZATION ( #55, #237, #6 ) ;
#212 = CALENDAR_DATE ( 2021, 26, 11 ) ;
#213 = CARTESIAN_POINT ( 'NONE',  ( 1.316288464743861212E-13, 1.499999999999998668, 37.69999999999999574 ) ) ;
#214 = COORDINATED_UNIVERSAL_TIME_OFFSET ( 1, 0, .AHEAD. ) ;
#215 = VERTEX_POINT ( 'NONE', #164 ) ;
#216 = PERSON_AND_ORGANIZATION_ROLE ( 'classification_officer' ) ;
#217 = APPROVAL_STATUS ( 'not_yet_approved' ) ;
#218 = CARTESIAN_POINT ( 'NONE',  ( 4.294851270214657466E-14, -1.506431038988472175E-15, 12.30094293340176570 ) ) ;
#219 = MANIFOLD_SOLID_BREP ( 'Corps-Déplacer/Copier1[1]', #47 ) ;
#220 = CARTESIAN_POINT ( 'NONE',  ( 1.326762908760390423E-13, 8.998558695971099120E-33, 38.00000000000000000 ) ) ;
#221 = ORIENTED_EDGE ( 'NONE', *, *, #204, .F. ) ;
#222 = MANIFOLD_SOLID_BREP ( 'Corps-Déplacer/Copier1[2]', #38 ) ;
#223 = ORIENTED_EDGE ( 'NONE', *, *, #111, .F. ) ;
#224 = FACE_OUTER_BOUND ( 'NONE', #2, .T. ) ;
#225 = FACE_OUTER_BOUND ( 'NONE', #250, .T. ) ;
#226 = CARTESIAN_POINT ( 'NONE',  ( 1.326762908760390423E-13, -4.653657836759941152E-15, 38.00000000000000000 ) ) ;
#227 = DIRECTION ( 'NONE',  ( 4.275831445896957731E-31, 1.000000000000000000, 1.224646799147352961E-16 ) ) ;
#228 = FACE_OUTER_BOUND ( 'NONE', #167, .T. ) ;
#229 = CARTESIAN_POINT ( 'NONE',  ( 3.491481338843133848E-16, 0.2434999999999993558, 0.1000000000000000056 ) ) ;
#230 = PERSON_AND_ORGANIZATION_ROLE ( 'creator' ) ;
#231 = COORDINATED_UNIVERSAL_TIME_OFFSET ( 1, 0, .AHEAD. ) ;
#232 = CARTESIAN_POINT ( 'NONE',  ( -4.731839565957903391E-32, 0.1857649730810376487, -1.355252715606880543E-17 ) ) ;
#233 = EDGE_LOOP ( 'NONE', ( #161 ) ) ;
#234 = AXIS2_PLACEMENT_3D ( 'NONE', #129, #82, #278 ) ;
#235 = SHAPE_DEFINITION_REPRESENTATION ( #253, #193 ) ;
#236 = DIRECTION ( 'NONE',  ( 0.0000000000000000000, 1.000000000000000000, 0.0000000000000000000 ) ) ;
#237 = APPROVAL ( #32, 'UNSPECIFIED' ) ;
#238 = ORIENTED_EDGE ( 'NONE', *, *, #262, .F. ) ;
#239 =( NAMED_UNIT ( * ) SI_UNIT ( $, .STERADIAN. ) SOLID_ANGLE_UNIT ( ) );
#240 = AXIS2_PLACEMENT_3D ( 'NONE', #282, #93, #46 ) ;
#241 = DIRECTION ( 'NONE',  ( -4.275831445896957731E-31, -1.000000000000000000, -1.224646799147352961E-16 ) ) ;
#242 = FACE_BOUND ( 'NONE', #92, .T. ) ;
#243 = DIRECTION ( 'NONE',  ( -3.491481338843133355E-15, 1.224646799147352961E-16, -1.000000000000000000 ) ) ;
#244 = DIRECTION ( 'NONE',  ( -3.491481338843133355E-15, 1.224646799147352961E-16, -1.000000000000000000 ) ) ;
#245 = ADVANCED_FACE ( 'NONE', ( #224, #266 ), #59, .T. ) ;
#246 = FACE_OUTER_BOUND ( 'NONE', #25, .T. ) ;
#247 = AXIS2_PLACEMENT_3D ( 'NONE', #39, #13, #197 ) ;
#248 = CARTESIAN_POINT ( 'NONE',  ( 1.047444401652940007E-14, -3.673940397442059375E-16, 3.000000000000000000 ) ) ;
#249 = CIRCLE ( 'NONE', #68, 0.1857649730810376487 ) ;
#250 = EDGE_LOOP ( 'NONE', ( #271 ) ) ;
#251 = PRODUCT_RELATED_PRODUCT_CATEGORY ( 'detail', '', ( #8 ) ) ;
#252 = DATE_AND_TIME ( #212, #79 ) ;
#253 = PRODUCT_DEFINITION_SHAPE ( 'NONE', 'NONE',  #33 ) ;
#254 = EDGE_LOOP ( 'NONE', ( #37 ) ) ;
#255 = CC_DESIGN_PERSON_AND_ORGANIZATION_ASSIGNMENT ( #76, #230, ( #22 ) ) ;
#256 = FACE_OUTER_BOUND ( 'NONE', #99, .T. ) ;
#257 = APPLICATION_CONTEXT ( 'configuration controlled 3d designs of mechanical parts and assemblies' ) ;
#258 = APPROVAL_ROLE ( '' ) ;
#259 = DIRECTION ( 'NONE',  ( 4.275831445896957731E-31, 1.000000000000000000, 1.224646799147352714E-16 ) ) ;
#260 = FACE_BOUND ( 'NONE', #52, .T. ) ;
#261 = MECHANICAL_CONTEXT ( 'NONE', #168, 'mechanical' ) ;
#262 = EDGE_CURVE ( 'NONE', #70, #70, #94, .T. ) ;
#263 = DIRECTION ( 'NONE',  ( 3.491481338843133355E-15, -1.224646799147352961E-16, 1.000000000000000000 ) ) ;
#264 = AXIS2_PLACEMENT_3D ( 'NONE', #66, #156, #158 ) ;
#265 = PERSON_AND_ORGANIZATION ( #123, #41 ) ;
#266 = FACE_OUTER_BOUND ( 'NONE', #254, .T. ) ;
#267 = ORIENTED_EDGE ( 'NONE', *, *, #262, .T. ) ;
#268 = DIRECTION ( 'NONE',  ( -3.954681610651418514E-31, -1.000000000000000000, -1.113143914256167585E-16 ) ) ;
#269 = CIRCLE ( 'NONE', #54, 1.500000000000003331 ) ;
#270 = PLANE ( 'NONE',  #264 ) ;
#271 = ORIENTED_EDGE ( 'NONE', *, *, #151, .F. ) ;
#272 = CIRCLE ( 'NONE', #138, 1.200000000000003286 ) ;
#273 = CALENDAR_DATE ( 2021, 26, 11 ) ;
#274 = FACE_OUTER_BOUND ( 'NONE', #91, .T. ) ;
#275 = CARTESIAN_POINT ( 'NONE',  ( 1.326762908760390423E-13, -4.653657836759941152E-15, 38.00000000000000000 ) ) ;
#276 = CARTESIAN_POINT ( 'NONE',  ( 1.047444401652940007E-14, 1.825957535390803550E-33, 3.000000000000000000 ) ) ;
#277 = CARTESIAN_POINT ( 'NONE',  ( 0.0000000000000000000, 0.0000000000000000000, 0.0000000000000000000 ) ) ;
#278 = DIRECTION ( 'NONE',  ( 1.000000000000000000, 0.0000000000000000000, 0.0000000000000000000 ) ) ;
#279 = APPROVAL_PERSON_ORGANIZATION ( #36, #20, #188 ) ;
#280 = ORIENTED_EDGE ( 'NONE', *, *, #182, .T. ) ;
#281 = DIRECTION ( 'NONE',  ( -3.491481338843133355E-15, 1.224646799147352961E-16, -1.000000000000000000 ) ) ;
#282 = CARTESIAN_POINT ( 'NONE',  ( 1.866998543791203065E-14, -6.548549365651903409E-16, 5.347296355333847728 ) ) ;
#283 = DIRECTION ( 'NONE',  ( 3.491481338843133355E-15, -1.224646799147352961E-16, 1.000000000000000000 ) ) ;
ENDSEC;
END-ISO-10303-21;
