ISO-10303-21;
HEADER;
FILE_DESCRIPTION (( 'STEP AP203' ),
    '1' );
FILE_NAME ('959804.step',
    '2021-11-26T14:47:29',
    ( '' ),
    ( '' ),
    'SwSTEP 2.0',
    'SolidWorks 2019',
    '' );
FILE_SCHEMA (( 'CONFIG_CONTROL_DESIGN' ));
ENDSEC;

DATA;
#1 = EDGE_CURVE ( 'NONE', #127, #127, #277, .T. ) ;
#2 = DIRECTION ( 'NONE',  ( 3.491481338843133355E-15, -1.224646799147352961E-16, 1.000000000000000000 ) ) ;
#3 = ADVANCED_BREP_SHAPE_REPRESENTATION ( '959804', ( #64, #163, #5 ), #244 ) ;
#4 = CLOSED_SHELL ( 'NONE', ( #40, #77, #7, #123 ) ) ;
#5 = AXIS2_PLACEMENT_3D ( 'NONE', #255, #169, #261 ) ;
#6 = ORIENTED_EDGE ( 'NONE', *, *, #55, .F. ) ;
#7 = ADVANCED_FACE ( 'NONE', ( #124, #271 ), #31, .T. ) ;
#8 = CARTESIAN_POINT ( 'NONE',  ( 1.745740669421566678E-14, -6.123233995736765296E-16, 5.000000000000000000 ) ) ;
#9 = PERSON_AND_ORGANIZATION ( #226, #95 ) ;
#10 = DIRECTION ( 'NONE',  ( 4.275831445896957731E-31, 1.000000000000000000, 1.224646799147352961E-16 ) ) ;
#11 = APPROVAL_PERSON_ORGANIZATION ( #9, #268, #145 ) ;
#12 = PERSON_AND_ORGANIZATION_ROLE ( 'creator' ) ;
#13 = CARTESIAN_POINT ( 'NONE',  ( -6.123626777914616068E-32, 2.147879139239782819E-33, -1.753876416233007461E-17 ) ) ;
#14 = DIRECTION ( 'NONE',  ( 0.0000000000000000000, 1.000000000000000000, 0.0000000000000000000 ) ) ;
#15 = DATE_AND_TIME ( #215, #49 ) ;
#16 = CONICAL_SURFACE ( 'NONE', #132, 1.200000000000003286, 0.7853981633974453924 ) ;
#17 = DIRECTION ( 'NONE',  ( -3.491481338843133355E-15, 1.224646799147352961E-16, -1.000000000000000000 ) ) ;
#18 = CC_DESIGN_PERSON_AND_ORGANIZATION_ASSIGNMENT ( #190, #141, ( #138 ) ) ;
#19 = CARTESIAN_POINT ( 'NONE',  ( 4.314652444855173701E-14, -1.513376356115929752E-15, 12.35765575159794416 ) ) ;
#20 = LOCAL_TIME ( 15, 47, 29.00000000000000000, #237 ) ;
#21 = DIRECTION ( 'NONE',  ( -3.491481338843133355E-15, 1.224646799147352961E-16, -1.000000000000000000 ) ) ;
#22 = DIRECTION ( 'NONE',  ( 0.0000000000000000000, 1.000000000000000000, 0.0000000000000000000 ) ) ;
#23 = ORIENTED_EDGE ( 'NONE', *, *, #1, .T. ) ;
#24 = VERTEX_POINT ( 'NONE', #112 ) ;
#25 = CLOSED_SHELL ( 'NONE', ( #105, #223, #62, #129, #147, #150, #197 ) ) ;
#26 = AXIS2_PLACEMENT_3D ( 'NONE', #56, #231, #225 ) ;
#27 = EDGE_CURVE ( 'NONE', #205, #205, #58, .T. ) ;
#28 = EDGE_CURVE ( 'NONE', #161, #161, #204, .T. ) ;
#29 = EDGE_CURVE ( 'NONE', #160, #160, #70, .T. ) ;
#30 = DATE_AND_TIME ( #37, #218 ) ;
#31 = CYLINDRICAL_SURFACE ( 'NONE', #153, 0.2334999999999995413 ) ;
#32 = PERSON_AND_ORGANIZATION ( #226, #95 ) ;
#33 = ORIENTED_EDGE ( 'NONE', *, *, #27, .T. ) ;
#34 = CIRCLE ( 'NONE', #89, 0.2334999999999997355 ) ;
#35 = ORIENTED_EDGE ( 'NONE', *, *, #250, .T. ) ;
#36 = COORDINATED_UNIVERSAL_TIME_OFFSET ( 1, 0, .AHEAD. ) ;
#37 = CALENDAR_DATE ( 2021, 26, 11 ) ;
#38 = CARTESIAN_POINT ( 'NONE',  ( 1.047444401652940007E-14, 1.750969546257710806E-33, 3.000000000000000000 ) ) ;
#39 = FACE_OUTER_BOUND ( 'NONE', #267, .T. ) ;
#40 = ADVANCED_FACE ( 'NONE', ( #192 ), #187, .F. ) ;
#41 = PLANE ( 'NONE',  #191 ) ;
#42 = AXIS2_PLACEMENT_3D ( 'NONE', #8, #92, #98 ) ;
#43 = CYLINDRICAL_SURFACE ( 'NONE', #44, 1.500000000000000000 ) ;
#44 = AXIS2_PLACEMENT_3D ( 'NONE', #57, #17, #60 ) ;
#45 = AXIS2_PLACEMENT_3D ( 'NONE', #266, #265, #80 ) ;
#46 = CARTESIAN_POINT ( 'NONE',  ( 1.047444401652940007E-14, 0.2334999999999993470, 3.000000000000000000 ) ) ;
#47 = ORIENTED_EDGE ( 'NONE', *, *, #170, .F. ) ;
#48 = AXIS2_PLACEMENT_3D ( 'NONE', #254, #216, #97 ) ;
#49 = LOCAL_TIME ( 15, 47, 29.00000000000000000, #36 ) ;
#50 = APPROVAL_DATE_TIME ( #15, #268 ) ;
#51 = APPROVAL_ROLE ( '' ) ;
#52 = AXIS2_PLACEMENT_3D ( 'NONE', #189, #140, #276 ) ;
#53 = LOCAL_TIME ( 15, 47, 29.00000000000000000, #188 ) ;
#54 = DIRECTION ( 'NONE',  ( -3.491481338843133355E-15, 1.224646799147352961E-16, -1.000000000000000000 ) ) ;
#55 = EDGE_CURVE ( 'NONE', #67, #67, #108, .T. ) ;
#56 = CARTESIAN_POINT ( 'NONE',  ( 1.745740669421566678E-14, -4.336808689942017736E-16, 5.000000000000000000 ) ) ;
#57 = CARTESIAN_POINT ( 'NONE',  ( 0.0000000000000000000, 0.0000000000000000000, 0.0000000000000000000 ) ) ;
#58 = CIRCLE ( 'NONE', #247, 1.200000000000003286 ) ;
#59 = AXIS2_PLACEMENT_3D ( 'NONE', #258, #54, #146 ) ;
#60 = DIRECTION ( 'NONE',  ( 4.275831445896957731E-31, 1.000000000000000000, 1.224646799147353207E-16 ) ) ;
#61 = DIRECTION ( 'NONE',  ( -3.491481338843133355E-15, 1.224646799147352961E-16, -1.000000000000000000 ) ) ;
#62 = ADVANCED_FACE ( 'NONE', ( #240, #78 ), #270, .F. ) ;
#63 = DIRECTION ( 'NONE',  ( 4.124046990122571540E-31, 1.000000000000000000, 1.160816030498401799E-16 ) ) ;
#64 = MANIFOLD_SOLID_BREP ( 'Corps-Déplacer/Copier1[1]', #25 ) ;
#65 = CC_DESIGN_PERSON_AND_ORGANIZATION_ASSIGNMENT ( #239, #193, ( #233 ) ) ;
#66 = CARTESIAN_POINT ( 'NONE',  ( -4.731839565957902296E-32, 0.1757649730810376398, -1.355252715606880543E-17 ) ) ;
#67 = VERTEX_POINT ( 'NONE', #203 ) ;
#68 = APPROVAL_PERSON_ORGANIZATION ( #32, #194, #51 ) ;
#69 = ORIENTED_EDGE ( 'NONE', *, *, #27, .F. ) ;
#70 = CIRCLE ( 'NONE', #52, 1.500000000000003331 ) ;
#71 = CONICAL_SURFACE ( 'NONE', #172, 1.499999999999996891, 0.1745329251994260922 ) ;
#72 = EDGE_LOOP ( 'NONE', ( #136 ) ) ;
#73 = DESIGN_CONTEXT ( 'detailed design', #241, 'design' ) ;
#74 = EDGE_LOOP ( 'NONE', ( #35 ) ) ;
#75 = APPLICATION_PROTOCOL_DEFINITION ( 'international standard', 'config_control_design', 1994, #241 ) ;
#76 = DIRECTION ( 'NONE',  ( 3.491481338843133355E-15, -1.224646799147352961E-16, 1.000000000000000000 ) ) ;
#77 = ADVANCED_FACE ( 'NONE', ( #260, #245 ), #222, .T. ) ;
#78 = FACE_OUTER_BOUND ( 'NONE', #84, .T. ) ;
#79 =( NAMED_UNIT ( * ) PLANE_ANGLE_UNIT ( ) SI_UNIT ( $, .RADIAN. ) );
#80 = DIRECTION ( 'NONE',  ( -4.124046990122571540E-31, -1.000000000000000000, -1.160816030498401799E-16 ) ) ;
#81 = FACE_OUTER_BOUND ( 'NONE', #162, .T. ) ;
#82 = DIRECTION ( 'NONE',  ( 4.275831445896957731E-31, 1.000000000000000000, 1.224646799147352961E-16 ) ) ;
#83 = PRODUCT_RELATED_PRODUCT_CATEGORY ( 'detail', '', ( #233 ) ) ;
#84 = EDGE_LOOP ( 'NONE', ( #90 ) ) ;
#85 = CARTESIAN_POINT ( 'NONE',  ( -1.224725355582923214E-31, 4.295758278479565637E-33, -3.507752832466014922E-17 ) ) ;
#86 = CC_DESIGN_PERSON_AND_ORGANIZATION_ASSIGNMENT ( #279, #12, ( #158 ) ) ;
#87 = VERTEX_POINT ( 'NONE', #206 ) ;
#88 = CARTESIAN_POINT ( 'NONE',  ( 1.326762908760390423E-13, 1.199999999999998845, 38.00000000000000000 ) ) ;
#89 = AXIS2_PLACEMENT_3D ( 'NONE', #103, #148, #262 ) ;
#90 = ORIENTED_EDGE ( 'NONE', *, *, #170, .T. ) ;
#91 = SECURITY_CLASSIFICATION_LEVEL ( 'unclassified' ) ;
#92 = DIRECTION ( 'NONE',  ( -3.491481338843133355E-15, 1.224646799147352961E-16, -1.000000000000000000 ) ) ;
#93 = APPROVAL_STATUS ( 'not_yet_approved' ) ;
#94 = APPROVAL ( #125, 'UNSPECIFIED' ) ;
#95 = ORGANIZATION ( 'UNSPECIFIED', 'UNSPECIFIED', '' ) ;
#96 =( NAMED_UNIT ( * ) SI_UNIT ( $, .STERADIAN. ) SOLID_ANGLE_UNIT ( ) );
#97 = DIRECTION ( 'NONE',  ( 0.0000000000000000000, 1.000000000000000000, 0.0000000000000000000 ) ) ;
#98 = DIRECTION ( 'NONE',  ( 0.0000000000000000000, 1.000000000000000000, 0.0000000000000000000 ) ) ;
#99 = AXIS2_PLACEMENT_3D ( 'NONE', #248, #21, #106 ) ;
#100 = PRODUCT_DEFINITION_SHAPE ( 'NONE', 'NONE',  #158 ) ;
#101 = FACE_OUTER_BOUND ( 'NONE', #72, .T. ) ;
#102 = CC_DESIGN_PERSON_AND_ORGANIZATION_ASSIGNMENT ( #110, #212, ( #186 ) ) ;
#103 = CARTESIAN_POINT ( 'NONE',  ( 1.047444401652940007E-14, -3.673940397442059375E-16, 3.000000000000000000 ) ) ;
#104 = CYLINDRICAL_SURFACE ( 'NONE', #143, 0.2334999999999998466 ) ;
#105 = ADVANCED_FACE ( 'NONE', ( #175 ), #224, .F. ) ;
#106 = DIRECTION ( 'NONE',  ( 0.0000000000000000000, 1.000000000000000000, 0.0000000000000000000 ) ) ;
#107 = ORIENTED_EDGE ( 'NONE', *, *, #182, .T. ) ;
#108 = CIRCLE ( 'NONE', #59, 1.499999999999996891 ) ;
#109 = CC_DESIGN_APPROVAL ( #268, ( #138 ) ) ;
#110 = PERSON_AND_ORGANIZATION ( #226, #95 ) ;
#111 = CARTESIAN_POINT ( 'NONE',  ( 1.745740669421566678E-14, 0.2334999999999993192, 5.000000000000000000 ) ) ;
#112 = CARTESIAN_POINT ( 'NONE',  ( 3.491481338843134341E-16, 0.2334999999999993747, 0.1000000000000000194 ) ) ;
#113 = EDGE_LOOP ( 'NONE', ( #199 ) ) ;
#114 = EDGE_CURVE ( 'NONE', #24, #24, #257, .T. ) ;
#115 = CALENDAR_DATE ( 2021, 26, 11 ) ;
#116 = UNCERTAINTY_MEASURE_WITH_UNIT (LENGTH_MEASURE( 1.000000000000000082E-05 ), #139, 'distance_accuracy_value', 'NONE');
#117 = EDGE_LOOP ( 'NONE', ( #251 ) ) ;
#118 = DATE_AND_TIME ( #232, #167 ) ;
#119 = APPROVAL_DATE_TIME ( #30, #194 ) ;
#120 = AXIS2_PLACEMENT_3D ( 'NONE', #85, #242, #178 ) ;
#121 = ORIENTED_EDGE ( 'NONE', *, *, #55, .T. ) ;
#122 = DATE_AND_TIME ( #115, #20 ) ;
#123 = ADVANCED_FACE ( 'NONE', ( #39 ), #130, .T. ) ;
#124 = FACE_OUTER_BOUND ( 'NONE', #157, .T. ) ;
#125 = APPROVAL_STATUS ( 'not_yet_approved' ) ;
#126 = EDGE_LOOP ( 'NONE', ( #6 ) ) ;
#127 = VERTEX_POINT ( 'NONE', #111 ) ;
#128 = CIRCLE ( 'NONE', #120, 0.1757649730810376398 ) ;
#129 = ADVANCED_FACE ( 'NONE', ( #195, #81 ), #71, .T. ) ;
#130 = PLANE ( 'NONE',  #278 ) ;
#131 = DIRECTION ( 'NONE',  ( 3.491481338843133355E-15, -1.224646799147352961E-16, 1.000000000000000000 ) ) ;
#132 = AXIS2_PLACEMENT_3D ( 'NONE', #151, #61, #22 ) ;
#133 = ORIENTED_EDGE ( 'NONE', *, *, #114, .F. ) ;
#134 = APPLICATION_CONTEXT ( 'configuration controlled 3d designs of mechanical parts and assemblies' ) ;
#135 = CC_DESIGN_DATE_AND_TIME_ASSIGNMENT ( #122, #166, ( #158 ) ) ;
#136 = ORIENTED_EDGE ( 'NONE', *, *, #29, .F. ) ;
#137 = VERTEX_POINT ( 'NONE', #229 ) ;
#138 = PRODUCT_DEFINITION_FORMATION_WITH_SPECIFIED_SOURCE ( 'ANY', '', #233, .NOT_KNOWN. ) ;
#139 =( LENGTH_UNIT ( ) NAMED_UNIT ( * ) SI_UNIT ( .MILLI., .METRE. ) );
#140 = DIRECTION ( 'NONE',  ( -3.491481338843133355E-15, 1.224646799147352961E-16, -1.000000000000000000 ) ) ;
#141 = PERSON_AND_ORGANIZATION_ROLE ( 'creator' ) ;
#142 = COORDINATED_UNIVERSAL_TIME_OFFSET ( 1, 0, .AHEAD. ) ;
#143 = AXIS2_PLACEMENT_3D ( 'NONE', #200, #283, #177 ) ;
#144 = EDGE_LOOP ( 'NONE', ( #107 ) ) ;
#145 = APPROVAL_ROLE ( '' ) ;
#146 = DIRECTION ( 'NONE',  ( 0.0000000000000000000, 1.000000000000000000, 0.0000000000000000000 ) ) ;
#147 = ADVANCED_FACE ( 'NONE', ( #280, #154 ), #43, .T. ) ;
#148 = DIRECTION ( 'NONE',  ( -3.491481338843133355E-15, 1.224646799147352961E-16, -1.000000000000000000 ) ) ;
#149 = FACE_OUTER_BOUND ( 'NONE', #282, .T. ) ;
#150 = ADVANCED_FACE ( 'NONE', ( #101, #173 ), #16, .T. ) ;
#151 = CARTESIAN_POINT ( 'NONE',  ( 1.326762908760390423E-13, -4.653657836759941152E-15, 38.00000000000000000 ) ) ;
#152 = FACE_OUTER_BOUND ( 'NONE', #165, .T. ) ;
#153 = AXIS2_PLACEMENT_3D ( 'NONE', #184, #213, #10 ) ;
#154 = FACE_OUTER_BOUND ( 'NONE', #236, .T. ) ;
#155 = PERSON_AND_ORGANIZATION_ROLE ( 'design_supplier' ) ;
#156 = EDGE_LOOP ( 'NONE', ( #47 ) ) ;
#157 = EDGE_LOOP ( 'NONE', ( #133 ) ) ;
#158 = PRODUCT_DEFINITION ( 'UNKNOWN', '', #138, #73 ) ;
#159 = CIRCLE ( 'NONE', #99, 0.2638844939755812802 ) ;
#160 = VERTEX_POINT ( 'NONE', #227 ) ;
#161 = VERTEX_POINT ( 'NONE', #46 ) ;
#162 = EDGE_LOOP ( 'NONE', ( #121 ) ) ;
#163 = MANIFOLD_SOLID_BREP ( 'Corps-Déplacer/Copier1[2]', #4 ) ;
#164 = EDGE_LOOP ( 'NONE', ( #176 ) ) ;
#165 = EDGE_LOOP ( 'NONE', ( #179 ) ) ;
#166 = DATE_TIME_ROLE ( 'creation_date' ) ;
#167 = LOCAL_TIME ( 15, 47, 29.00000000000000000, #183 ) ;
#168 = DIRECTION ( 'NONE',  ( -4.275831445896957731E-31, -1.000000000000000000, -1.224646799147352961E-16 ) ) ;
#169 = DIRECTION ( 'NONE',  ( 0.0000000000000000000, 0.0000000000000000000, 1.000000000000000000 ) ) ;
#170 = EDGE_CURVE ( 'NONE', #87, #87, #159, .T. ) ;
#171 = DIRECTION ( 'NONE',  ( -4.275831445896957731E-31, -1.000000000000000000, -1.224646799147352961E-16 ) ) ;
#172 = AXIS2_PLACEMENT_3D ( 'NONE', #19, #246, #221 ) ;
#173 = FACE_BOUND ( 'NONE', #202, .T. ) ;
#174 = CC_DESIGN_APPROVAL ( #94, ( #186 ) ) ;
#175 = FACE_OUTER_BOUND ( 'NONE', #144, .T. ) ;
#176 = ORIENTED_EDGE ( 'NONE', *, *, #28, .T. ) ;
#177 = DIRECTION ( 'NONE',  ( 4.275831445896957731E-31, 1.000000000000000000, 1.224646799147352961E-16 ) ) ;
#178 = DIRECTION ( 'NONE',  ( 4.275831445896957731E-31, 1.000000000000000000, 1.224646799147352961E-16 ) ) ;
#179 = ORIENTED_EDGE ( 'NONE', *, *, #182, .F. ) ;
#180 = VERTEX_POINT ( 'NONE', #66 ) ;
#181 = APPROVAL_PERSON_ORGANIZATION ( #274, #94, #210 ) ;
#182 = EDGE_CURVE ( 'NONE', #137, #137, #34, .T. ) ;
#183 = COORDINATED_UNIVERSAL_TIME_OFFSET ( 1, 0, .AHEAD. ) ;
#184 = CARTESIAN_POINT ( 'NONE',  ( 0.0000000000000000000, 0.0000000000000000000, 0.0000000000000000000 ) ) ;
#185 = APPROVAL_STATUS ( 'not_yet_approved' ) ;
#186 = SECURITY_CLASSIFICATION ( '', '', #91 ) ;
#187 = PLANE ( 'NONE',  #243 ) ;
#188 = COORDINATED_UNIVERSAL_TIME_OFFSET ( 1, 0, .AHEAD. ) ;
#189 = CARTESIAN_POINT ( 'NONE',  ( 1.316288464743861212E-13, -4.616918432785520292E-15, 37.69999999999999574 ) ) ;
#190 = PERSON_AND_ORGANIZATION ( #226, #95 ) ;
#191 = AXIS2_PLACEMENT_3D ( 'NONE', #198, #201, #82 ) ;
#192 = FACE_OUTER_BOUND ( 'NONE', #74, .T. ) ;
#193 = PERSON_AND_ORGANIZATION_ROLE ( 'design_owner' ) ;
#194 = APPROVAL ( #93, 'UNSPECIFIED' ) ;
#195 = FACE_BOUND ( 'NONE', #156, .T. ) ;
#196 = CARTESIAN_POINT ( 'NONE',  ( 1.047444401652940007E-14, 1.750969546257710806E-33, 3.000000000000000000 ) ) ;
#197 = ADVANCED_FACE ( 'NONE', ( #264 ), #41, .F. ) ;
#198 = CARTESIAN_POINT ( 'NONE',  ( 1.326762908760390423E-13, 8.998558695971099120E-33, 38.00000000000000000 ) ) ;
#199 = ORIENTED_EDGE ( 'NONE', *, *, #1, .F. ) ;
#200 = CARTESIAN_POINT ( 'NONE',  ( 0.0000000000000000000, 0.0000000000000000000, 0.0000000000000000000 ) ) ;
#201 = DIRECTION ( 'NONE',  ( -3.491481338843133355E-15, 1.224646799147352961E-16, -1.000000000000000000 ) ) ;
#202 = EDGE_LOOP ( 'NONE', ( #33 ) ) ;
#203 = CARTESIAN_POINT ( 'NONE',  ( 4.314652444855173701E-14, 1.499999999999995559, 12.35765575159794416 ) ) ;
#204 = CIRCLE ( 'NONE', #48, 0.2334999999999997355 ) ;
#205 = VERTEX_POINT ( 'NONE', #88 ) ;
#206 = CARTESIAN_POINT ( 'NONE',  ( 1.866998543791203065E-14, 0.2638844939755806140, 5.347296355333847728 ) ) ;
#207 = ORIENTED_EDGE ( 'NONE', *, *, #114, .T. ) ;
#208 = MECHANICAL_CONTEXT ( 'NONE', #134, 'mechanical' ) ;
#209 = EDGE_LOOP ( 'NONE', ( #69 ) ) ;
#210 = APPROVAL_ROLE ( '' ) ;
#211 = DIRECTION ( 'NONE',  ( -3.491481338843133355E-15, 1.224646799147352961E-16, -1.000000000000000000 ) ) ;
#212 = PERSON_AND_ORGANIZATION_ROLE ( 'classification_officer' ) ;
#213 = DIRECTION ( 'NONE',  ( -3.491481338843133355E-15, 1.224646799147352961E-16, -1.000000000000000000 ) ) ;
#214 = APPROVAL_DATE_TIME ( #259, #94 ) ;
#215 = CALENDAR_DATE ( 2021, 26, 11 ) ;
#216 = DIRECTION ( 'NONE',  ( -3.491481338843133355E-15, 1.224646799147352961E-16, -1.000000000000000000 ) ) ;
#217 = SHAPE_DEFINITION_REPRESENTATION ( #100, #3 ) ;
#218 = LOCAL_TIME ( 15, 47, 29.00000000000000000, #142 ) ;
#219 = DIRECTION ( 'NONE',  ( -3.491481338843133355E-15, 1.224646799147352961E-16, -1.000000000000000000 ) ) ;
#220 = CARTESIAN_POINT ( 'NONE',  ( 3.491481338843133355E-16, -1.224646799147352807E-17, 0.09999999999999999167 ) ) ;
#221 = DIRECTION ( 'NONE',  ( 0.0000000000000000000, -1.000000000000000000, 0.0000000000000000000 ) ) ;
#222 = CONICAL_SURFACE ( 'NONE', #45, 0.2334999999999993747, 0.5235987755982924874 ) ;
#223 = ADVANCED_FACE ( 'NONE', ( #152, #149 ), #104, .T. ) ;
#224 = PLANE ( 'NONE',  #228 ) ;
#225 = DIRECTION ( 'NONE',  ( 4.401284590591699765E-31, 1.000000000000000000, 1.224646799147352961E-16 ) ) ;
#226 = PERSON ( 'UNSPECIFIED', 'UNSPECIFIED', 'UNSPECIFIED', ('UNSPECIFIED'), ('UNSPECIFIED'), ('UNSPECIFIED') ) ;
#227 = CARTESIAN_POINT ( 'NONE',  ( 1.316288464743861212E-13, 1.499999999999998668, 37.69999999999999574 ) ) ;
#228 = AXIS2_PLACEMENT_3D ( 'NONE', #38, #131, #171 ) ;
#229 = CARTESIAN_POINT ( 'NONE',  ( 1.047444401652940007E-14, 0.2334999999999993470, 3.000000000000000000 ) ) ;
#230 = AXIS2_PLACEMENT_3D ( 'NONE', #220, #219, #63 ) ;
#231 = DIRECTION ( 'NONE',  ( -3.491481338843133355E-15, 1.224646799147352961E-16, -1.000000000000000000 ) ) ;
#232 = CALENDAR_DATE ( 2021, 26, 11 ) ;
#233 = PRODUCT ( '959804', '959804', '', ( #208 ) ) ;
#234 = PERSON_AND_ORGANIZATION ( #226, #95 ) ;
#235 = CC_DESIGN_PERSON_AND_ORGANIZATION_ASSIGNMENT ( #234, #155, ( #138 ) ) ;
#236 = EDGE_LOOP ( 'NONE', ( #249 ) ) ;
#237 = COORDINATED_UNIVERSAL_TIME_OFFSET ( 1, 0, .AHEAD. ) ;
#238 = EDGE_LOOP ( 'NONE', ( #207 ) ) ;
#239 = PERSON_AND_ORGANIZATION ( #226, #95 ) ;
#240 = FACE_OUTER_BOUND ( 'NONE', #113, .T. ) ;
#241 = APPLICATION_CONTEXT ( 'configuration controlled 3d designs of mechanical parts and assemblies' ) ;
#242 = DIRECTION ( 'NONE',  ( -3.491481338843133355E-15, 1.224646799147352961E-16, -1.000000000000000000 ) ) ;
#243 = AXIS2_PLACEMENT_3D ( 'NONE', #13, #76, #168 ) ;
#244 =( GEOMETRIC_REPRESENTATION_CONTEXT ( 3 ) GLOBAL_UNCERTAINTY_ASSIGNED_CONTEXT ( ( #116 ) ) GLOBAL_UNIT_ASSIGNED_CONTEXT ( ( #139, #79, #96 ) ) REPRESENTATION_CONTEXT ( 'NONE', 'WORKASPACE' ) );
#245 = FACE_OUTER_BOUND ( 'NONE', #238, .T. ) ;
#246 = DIRECTION ( 'NONE',  ( 3.491481338843133355E-15, -1.224646799147352961E-16, 1.000000000000000000 ) ) ;
#247 = AXIS2_PLACEMENT_3D ( 'NONE', #269, #211, #14 ) ;
#248 = CARTESIAN_POINT ( 'NONE',  ( 1.866998543791203065E-14, -6.548549365651903409E-16, 5.347296355333847728 ) ) ;
#249 = ORIENTED_EDGE ( 'NONE', *, *, #29, .T. ) ;
#250 = EDGE_CURVE ( 'NONE', #180, #180, #128, .T. ) ;
#251 = ORIENTED_EDGE ( 'NONE', *, *, #250, .F. ) ;
#252 = CC_DESIGN_SECURITY_CLASSIFICATION ( #186, ( #138 ) ) ;
#253 = CC_DESIGN_DATE_AND_TIME_ASSIGNMENT ( #118, #256, ( #186 ) ) ;
#254 = CARTESIAN_POINT ( 'NONE',  ( 1.047444401652940007E-14, -3.673940397442059375E-16, 3.000000000000000000 ) ) ;
#255 = CARTESIAN_POINT ( 'NONE',  ( 0.0000000000000000000, 0.0000000000000000000, 0.0000000000000000000 ) ) ;
#256 = DATE_TIME_ROLE ( 'classification_date' ) ;
#257 = CIRCLE ( 'NONE', #230, 0.2334999999999993747 ) ;
#258 = CARTESIAN_POINT ( 'NONE',  ( 4.314652444855173701E-14, -1.513376356115929752E-15, 12.35765575159794416 ) ) ;
#259 = DATE_AND_TIME ( #272, #53 ) ;
#260 = FACE_BOUND ( 'NONE', #117, .T. ) ;
#261 = DIRECTION ( 'NONE',  ( 1.000000000000000000, 0.0000000000000000000, 0.0000000000000000000 ) ) ;
#262 = DIRECTION ( 'NONE',  ( 0.0000000000000000000, 1.000000000000000000, 0.0000000000000000000 ) ) ;
#263 = CC_DESIGN_APPROVAL ( #194, ( #158 ) ) ;
#264 = FACE_OUTER_BOUND ( 'NONE', #209, .T. ) ;
#265 = DIRECTION ( 'NONE',  ( 3.491481338843133355E-15, -1.224646799147352961E-16, 1.000000000000000000 ) ) ;
#266 = CARTESIAN_POINT ( 'NONE',  ( 3.491481338843133355E-16, -1.224646799147352807E-17, 0.09999999999999999167 ) ) ;
#267 = EDGE_LOOP ( 'NONE', ( #273 ) ) ;
#268 = APPROVAL ( #185, 'UNSPECIFIED' ) ;
#269 = CARTESIAN_POINT ( 'NONE',  ( 1.326762908760390423E-13, -4.653657836759941152E-15, 38.00000000000000000 ) ) ;
#270 = TOROIDAL_SURFACE ( 'NONE', #26, 2.233499999999999819, 2.000000000000000000 ) ;
#271 = FACE_OUTER_BOUND ( 'NONE', #164, .T. ) ;
#272 = CALENDAR_DATE ( 2021, 26, 11 ) ;
#273 = ORIENTED_EDGE ( 'NONE', *, *, #28, .F. ) ;
#274 = PERSON_AND_ORGANIZATION ( #226, #95 ) ;
#275 = APPLICATION_PROTOCOL_DEFINITION ( 'international standard', 'config_control_design', 1994, #134 ) ;
#276 = DIRECTION ( 'NONE',  ( 0.0000000000000000000, 1.000000000000000000, 0.0000000000000000000 ) ) ;
#277 = CIRCLE ( 'NONE', #42, 0.2334999999999999576 ) ;
#278 = AXIS2_PLACEMENT_3D ( 'NONE', #196, #2, #281 ) ;
#279 = PERSON_AND_ORGANIZATION ( #226, #95 ) ;
#280 = FACE_OUTER_BOUND ( 'NONE', #126, .T. ) ;
#281 = DIRECTION ( 'NONE',  ( -4.275831445896957731E-31, -1.000000000000000000, -1.224646799147352961E-16 ) ) ;
#282 = EDGE_LOOP ( 'NONE', ( #23 ) ) ;
#283 = DIRECTION ( 'NONE',  ( -3.491481338843133355E-15, 1.224646799147352961E-16, -1.000000000000000000 ) ) ;
ENDSEC;
END-ISO-10303-21;
