ISO-10303-21;
HEADER;
FILE_DESCRIPTION (( 'STEP AP203' ),
    '1' );
FILE_NAME ('959803.step',
    '2021-11-26T14:47:28',
    ( '' ),
    ( '' ),
    'SwSTEP 2.0',
    'SolidWorks 2019',
    '' );
FILE_SCHEMA (( 'CONFIG_CONTROL_DESIGN' ));
ENDSEC;

DATA;
#1 = ADVANCED_FACE ( 'NONE', ( #149, #239 ), #12, .T. ) ;
#2 = FACE_OUTER_BOUND ( 'NONE', #41, .T. ) ;
#3 = APPROVAL_DATE_TIME ( #202, #7 ) ;
#4 = APPLICATION_CONTEXT ( 'configuration controlled 3d designs of mechanical parts and assemblies' ) ;
#5 = CARTESIAN_POINT ( 'NONE',  ( 1.326762908760390423E-13, 1.199999999999998845, 38.00000000000000000 ) ) ;
#6 = AXIS2_PLACEMENT_3D ( 'NONE', #273, #13, #154 ) ;
#7 = APPROVAL ( #65, 'UNSPECIFIED' ) ;
#8 = DIRECTION ( 'NONE',  ( 4.308568108248861523E-31, 1.000000000000000000, 1.212754107925623477E-16 ) ) ;
#9 = ORIENTED_EDGE ( 'NONE', *, *, #192, .T. ) ;
#10 = ORIENTED_EDGE ( 'NONE', *, *, #272, .T. ) ;
#11 =( NAMED_UNIT ( * ) PLANE_ANGLE_UNIT ( ) SI_UNIT ( $, .RADIAN. ) );
#12 = CYLINDRICAL_SURFACE ( 'NONE', #96, 0.2234999999999995601 ) ;
#13 = DIRECTION ( 'NONE',  ( 0.0000000000000000000, 0.0000000000000000000, 1.000000000000000000 ) ) ;
#14 = CIRCLE ( 'NONE', #219, 0.2234999999999999210 ) ;
#15 = APPROVAL_ROLE ( '' ) ;
#16 = EDGE_CURVE ( 'NONE', #187, #187, #150, .T. ) ;
#17 = CALENDAR_DATE ( 2021, 26, 11 ) ;
#18 = ORIENTED_EDGE ( 'NONE', *, *, #90, .T. ) ;
#19 = COORDINATED_UNIVERSAL_TIME_OFFSET ( 1, 0, .AHEAD. ) ;
#20 = EDGE_LOOP ( 'NONE', ( #54 ) ) ;
#21 = CARTESIAN_POINT ( 'NONE',  ( -5.909835205619770020E-32, 2.072891150106690417E-33, -1.692644076275639936E-17 ) ) ;
#22 = AXIS2_PLACEMENT_3D ( 'NONE', #258, #260, #282 ) ;
#23 = CARTESIAN_POINT ( 'NONE',  ( 1.047444401652940007E-14, 1.675981557124617379E-33, 3.000000000000000000 ) ) ;
#24 = PERSON_AND_ORGANIZATION ( #188, #143 ) ;
#25 = DIRECTION ( 'NONE',  ( -4.275831445896957731E-31, -1.000000000000000000, -1.224646799147352961E-16 ) ) ;
#26 = AXIS2_PLACEMENT_3D ( 'NONE', #194, #55, #84 ) ;
#27 = FACE_BOUND ( 'NONE', #112, .T. ) ;
#28 = CARTESIAN_POINT ( 'NONE',  ( 4.334453619495689936E-14, 1.499999999999995559, 12.41436856979412440 ) ) ;
#29 = VERTEX_POINT ( 'NONE', #72 ) ;
#30 = LOCAL_TIME ( 15, 47, 28.00000000000000000, #86 ) ;
#31 = CC_DESIGN_PERSON_AND_ORGANIZATION_ASSIGNMENT ( #256, #276, ( #212 ) ) ;
#32 = EDGE_LOOP ( 'NONE', ( #172 ) ) ;
#33 = FACE_BOUND ( 'NONE', #38, .T. ) ;
#34 = CC_DESIGN_APPROVAL ( #7, ( #161 ) ) ;
#35 = ADVANCED_FACE ( 'NONE', ( #33, #238 ), #39, .T. ) ;
#36 = CARTESIAN_POINT ( 'NONE',  ( 1.326762908760390423E-13, -4.653657836759941152E-15, 38.00000000000000000 ) ) ;
#37 = ORIENTED_EDGE ( 'NONE', *, *, #272, .F. ) ;
#38 = EDGE_LOOP ( 'NONE', ( #76 ) ) ;
#39 = CONICAL_SURFACE ( 'NONE', #60, 1.499999999999996891, 0.1745329251994260367 ) ;
#40 = APPROVAL_STATUS ( 'not_yet_approved' ) ;
#41 = EDGE_LOOP ( 'NONE', ( #18 ) ) ;
#42 = APPROVAL_STATUS ( 'not_yet_approved' ) ;
#43 = CC_DESIGN_DATE_AND_TIME_ASSIGNMENT ( #174, #158, ( #140 ) ) ;
#44 = DIRECTION ( 'NONE',  ( 3.491481338843133355E-15, -1.224646799147352961E-16, 1.000000000000000000 ) ) ;
#45 = ADVANCED_FACE ( 'NONE', ( #243, #62 ), #269, .F. ) ;
#46 = CARTESIAN_POINT ( 'NONE',  ( 4.334453619495689936E-14, -1.520321673243387527E-15, 12.41436856979412440 ) ) ;
#47 = ORIENTED_EDGE ( 'NONE', *, *, #16, .F. ) ;
#48 = DIRECTION ( 'NONE',  ( -3.491481338843133355E-15, 1.224646799147352961E-16, -1.000000000000000000 ) ) ;
#49 = CC_DESIGN_DATE_AND_TIME_ASSIGNMENT ( #123, #94, ( #161 ) ) ;
#50 = DIRECTION ( 'NONE',  ( -3.491481338843133355E-15, 1.224646799147352961E-16, -1.000000000000000000 ) ) ;
#51 = CARTESIAN_POINT ( 'NONE',  ( 1.316288464743861212E-13, 1.499999999999998668, 37.69999999999999574 ) ) ;
#52 = CC_DESIGN_APPROVAL ( #56, ( #140 ) ) ;
#53 = CARTESIAN_POINT ( 'NONE',  ( 1.866998543791203065E-14, -6.548549365651903409E-16, 5.347296355333847728 ) ) ;
#54 = ORIENTED_EDGE ( 'NONE', *, *, #147, .T. ) ;
#55 = DIRECTION ( 'NONE',  ( -3.491481338843133355E-15, 1.224646799147352961E-16, -1.000000000000000000 ) ) ;
#56 = APPROVAL ( #40, 'UNSPECIFIED' ) ;
#57 = EDGE_LOOP ( 'NONE', ( #156 ) ) ;
#58 = ORIENTED_EDGE ( 'NONE', *, *, #134, .T. ) ;
#59 = ORIENTED_EDGE ( 'NONE', *, *, #90, .F. ) ;
#60 = AXIS2_PLACEMENT_3D ( 'NONE', #254, #44, #68 ) ;
#61 = PERSON_AND_ORGANIZATION_ROLE ( 'design_supplier' ) ;
#62 = FACE_OUTER_BOUND ( 'NONE', #81, .T. ) ;
#63 = SECURITY_CLASSIFICATION_LEVEL ( 'unclassified' ) ;
#64 = APPLICATION_CONTEXT ( 'configuration controlled 3d designs of mechanical parts and assemblies' ) ;
#65 = APPROVAL_STATUS ( 'not_yet_approved' ) ;
#66 = LOCAL_TIME ( 15, 47, 28.00000000000000000, #133 ) ;
#67 = DIRECTION ( 'NONE',  ( -3.491481338843133355E-15, 1.224646799147352961E-16, -1.000000000000000000 ) ) ;
#68 = DIRECTION ( 'NONE',  ( 0.0000000000000000000, -1.000000000000000000, 0.0000000000000000000 ) ) ;
#69 = CARTESIAN_POINT ( 'NONE',  ( -4.731839565957904486E-32, 0.1657649730810376587, -1.355252715606880851E-17 ) ) ;
#70 = LOCAL_TIME ( 15, 47, 28.00000000000000000, #198 ) ;
#71 = FACE_OUTER_BOUND ( 'NONE', #32, .T. ) ;
#72 = CARTESIAN_POINT ( 'NONE',  ( 1.047444401652940007E-14, 0.2234999999999993381, 3.000000000000000000 ) ) ;
#73 = CLOSED_SHELL ( 'NONE', ( #151, #224, #1, #75 ) ) ;
#74 = CIRCLE ( 'NONE', #22, 1.500000000000003331 ) ;
#75 = ADVANCED_FACE ( 'NONE', ( #275 ), #98, .T. ) ;
#76 = ORIENTED_EDGE ( 'NONE', *, *, #192, .F. ) ;
#77 = EDGE_LOOP ( 'NONE', ( #189 ) ) ;
#78 = VERTEX_POINT ( 'NONE', #99 ) ;
#79 = CONICAL_SURFACE ( 'NONE', #146, 0.2234999999999993936, 0.5235987755982923764 ) ;
#80 = PERSON_AND_ORGANIZATION_ROLE ( 'creator' ) ;
#81 = EDGE_LOOP ( 'NONE', ( #9 ) ) ;
#82 = MANIFOLD_SOLID_BREP ( 'Corps-Déplacer/Copier1[2]', #73 ) ;
#83 = ORIENTED_EDGE ( 'NONE', *, *, #211, .F. ) ;
#84 = DIRECTION ( 'NONE',  ( 4.275831445896958607E-31, 1.000000000000000000, 1.224646799147352961E-16 ) ) ;
#85 = CC_DESIGN_PERSON_AND_ORGANIZATION_ASSIGNMENT ( #89, #61, ( #212 ) ) ;
#86 = COORDINATED_UNIVERSAL_TIME_OFFSET ( 1, 0, .AHEAD. ) ;
#87 = DIRECTION ( 'NONE',  ( 0.0000000000000000000, 1.000000000000000000, 0.0000000000000000000 ) ) ;
#88 = APPROVAL_PERSON_ORGANIZATION ( #193, #131, #222 ) ;
#89 = PERSON_AND_ORGANIZATION ( #188, #143 ) ;
#90 = EDGE_CURVE ( 'NONE', #283, #283, #74, .T. ) ;
#91 = DIRECTION ( 'NONE',  ( -3.491481338843133355E-15, 1.224646799147352961E-16, -1.000000000000000000 ) ) ;
#92 = PRODUCT ( '959803', '959803', '', ( #107 ) ) ;
#93 = DATE_AND_TIME ( #274, #30 ) ;
#94 = DATE_TIME_ROLE ( 'classification_date' ) ;
#95 = DIRECTION ( 'NONE',  ( 4.401581626568247734E-31, 1.000000000000000000, 1.224646799147352961E-16 ) ) ;
#96 = AXIS2_PLACEMENT_3D ( 'NONE', #220, #106, #153 ) ;
#97 = COORDINATED_UNIVERSAL_TIME_OFFSET ( 1, 0, .AHEAD. ) ;
#98 = PLANE ( 'NONE',  #281 ) ;
#99 = CARTESIAN_POINT ( 'NONE',  ( 1.047444401652940007E-14, 0.2234999999999993381, 3.000000000000000000 ) ) ;
#100 = DIRECTION ( 'NONE',  ( -3.491481338843133355E-15, 1.224646799147352961E-16, -1.000000000000000000 ) ) ;
#101 = CIRCLE ( 'NONE', #241, 0.2234999999999997267 ) ;
#102 = CARTESIAN_POINT ( 'NONE',  ( 3.491481338843133355E-16, -1.224646799147352807E-17, 0.09999999999999999167 ) ) ;
#103 = EDGE_CURVE ( 'NONE', #78, #78, #101, .T. ) ;
#104 = AXIS2_PLACEMENT_3D ( 'NONE', #232, #213, #8 ) ;
#105 = DIRECTION ( 'NONE',  ( 0.0000000000000000000, 1.000000000000000000, 0.0000000000000000000 ) ) ;
#106 = DIRECTION ( 'NONE',  ( -3.491481338843133355E-15, 1.224646799147352961E-16, -1.000000000000000000 ) ) ;
#107 = MECHANICAL_CONTEXT ( 'NONE', #4, 'mechanical' ) ;
#108 = CLOSED_SHELL ( 'NONE', ( #167, #180, #45, #35, #248, #205, #117 ) ) ;
#109 = AXIS2_PLACEMENT_3D ( 'NONE', #36, #48, #105 ) ;
#110 = AXIS2_PLACEMENT_3D ( 'NONE', #53, #100, #125 ) ;
#111 = EDGE_LOOP ( 'NONE', ( #83 ) ) ;
#112 = EDGE_LOOP ( 'NONE', ( #127 ) ) ;
#113 = DIRECTION ( 'NONE',  ( 0.0000000000000000000, 1.000000000000000000, 0.0000000000000000000 ) ) ;
#114 = DIRECTION ( 'NONE',  ( -4.275831445896957731E-31, -1.000000000000000000, -1.224646799147352961E-16 ) ) ;
#115 = AXIS2_PLACEMENT_3D ( 'NONE', #144, #184, #165 ) ;
#116 = PERSON_AND_ORGANIZATION_ROLE ( 'classification_officer' ) ;
#117 = ADVANCED_FACE ( 'NONE', ( #181 ), #182, .F. ) ;
#118 = SHAPE_DEFINITION_REPRESENTATION ( #280, #166 ) ;
#119 = FACE_OUTER_BOUND ( 'NONE', #77, .T. ) ;
#120 = CIRCLE ( 'NONE', #137, 0.2234999999999997267 ) ;
#121 = FACE_OUTER_BOUND ( 'NONE', #155, .T. ) ;
#122 = CYLINDRICAL_SURFACE ( 'NONE', #233, 0.2234999999999998099 ) ;
#123 = DATE_AND_TIME ( #259, #70 ) ;
#124 = VERTEX_POINT ( 'NONE', #28 ) ;
#125 = DIRECTION ( 'NONE',  ( 0.0000000000000000000, 1.000000000000000000, 0.0000000000000000000 ) ) ;
#126 = APPROVAL_PERSON_ORGANIZATION ( #24, #7, #265 ) ;
#127 = ORIENTED_EDGE ( 'NONE', *, *, #253, .T. ) ;
#128 = VERTEX_POINT ( 'NONE', #5 ) ;
#129 = ORIENTED_EDGE ( 'NONE', *, *, #253, .F. ) ;
#130 = PERSON_AND_ORGANIZATION ( #188, #143 ) ;
#131 = APPROVAL ( #42, 'UNSPECIFIED' ) ;
#132 = AXIS2_PLACEMENT_3D ( 'NONE', #46, #200, #87 ) ;
#133 = COORDINATED_UNIVERSAL_TIME_OFFSET ( 1, 0, .AHEAD. ) ;
#134 = EDGE_CURVE ( 'NONE', #29, #29, #120, .T. ) ;
#135 = PERSON_AND_ORGANIZATION ( #188, #143 ) ;
#136 = CARTESIAN_POINT ( 'NONE',  ( 1.745740669421566678E-14, -4.336808689942017736E-16, 5.000000000000000000 ) ) ;
#137 = AXIS2_PLACEMENT_3D ( 'NONE', #227, #67, #223 ) ;
#138 = CARTESIAN_POINT ( 'NONE',  ( 1.326762908760390423E-13, 8.998558695971099120E-33, 38.00000000000000000 ) ) ;
#139 = DESIGN_CONTEXT ( 'detailed design', #64, 'design' ) ;
#140 = PRODUCT_DEFINITION ( 'UNKNOWN', '', #212, #139 ) ;
#141 = DIRECTION ( 'NONE',  ( 3.491481338843133355E-15, -1.224646799147352961E-16, 1.000000000000000000 ) ) ;
#142 = DIRECTION ( 'NONE',  ( 3.491481338843133355E-15, -1.224646799147352961E-16, 1.000000000000000000 ) ) ;
#143 = ORGANIZATION ( 'UNSPECIFIED', 'UNSPECIFIED', '' ) ;
#144 = CARTESIAN_POINT ( 'NONE',  ( 0.0000000000000000000, 0.0000000000000000000, 0.0000000000000000000 ) ) ;
#145 = DIRECTION ( 'NONE',  ( -3.491481338843133355E-15, 1.224646799147352961E-16, -1.000000000000000000 ) ) ;
#146 = AXIS2_PLACEMENT_3D ( 'NONE', #102, #231, #236 ) ;
#147 = EDGE_CURVE ( 'NONE', #124, #124, #186, .T. ) ;
#148 =( LENGTH_UNIT ( ) NAMED_UNIT ( * ) SI_UNIT ( .MILLI., .METRE. ) );
#149 = FACE_OUTER_BOUND ( 'NONE', #111, .T. ) ;
#150 = CIRCLE ( 'NONE', #26, 0.1657649730810376587 ) ;
#151 = ADVANCED_FACE ( 'NONE', ( #255 ), #278, .F. ) ;
#152 = FACE_OUTER_BOUND ( 'NONE', #168, .T. ) ;
#153 = DIRECTION ( 'NONE',  ( 4.275831445896957731E-31, 1.000000000000000000, 1.224646799147352714E-16 ) ) ;
#154 = DIRECTION ( 'NONE',  ( 1.000000000000000000, 0.0000000000000000000, 0.0000000000000000000 ) ) ;
#155 = EDGE_LOOP ( 'NONE', ( #199 ) ) ;
#156 = ORIENTED_EDGE ( 'NONE', *, *, #103, .T. ) ;
#157 = CIRCLE ( 'NONE', #110, 0.2538844939755816044 ) ;
#158 = DATE_TIME_ROLE ( 'creation_date' ) ;
#159 = CC_DESIGN_PERSON_AND_ORGANIZATION_ASSIGNMENT ( #178, #80, ( #140 ) ) ;
#160 = DIRECTION ( 'NONE',  ( -4.275831445896957731E-31, -1.000000000000000000, -1.224646799147352961E-16 ) ) ;
#161 = SECURITY_CLASSIFICATION ( '', '', #63 ) ;
#162 = CARTESIAN_POINT ( 'NONE',  ( 1.047444401652940007E-14, 1.675981557124617379E-33, 3.000000000000000000 ) ) ;
#163 = CARTESIAN_POINT ( 'NONE',  ( 1.745740669421566678E-14, 0.2234999999999993103, 5.000000000000000000 ) ) ;
#164 = LOCAL_TIME ( 15, 47, 28.00000000000000000, #97 ) ;
#165 = DIRECTION ( 'NONE',  ( 4.275831445896957731E-31, 1.000000000000000000, 1.224646799147353207E-16 ) ) ;
#166 = ADVANCED_BREP_SHAPE_REPRESENTATION ( '959803', ( #268, #82, #6 ), #204 ) ;
#167 = ADVANCED_FACE ( 'NONE', ( #262 ), #228, .F. ) ;
#168 = EDGE_LOOP ( 'NONE', ( #59 ) ) ;
#169 = VERTEX_POINT ( 'NONE', #163 ) ;
#170 = CARTESIAN_POINT ( 'NONE',  ( 0.0000000000000000000, 0.0000000000000000000, 0.0000000000000000000 ) ) ;
#171 = APPROVAL_DATE_TIME ( #196, #131 ) ;
#172 = ORIENTED_EDGE ( 'NONE', *, *, #211, .T. ) ;
#173 = EDGE_LOOP ( 'NONE', ( #129 ) ) ;
#174 = DATE_AND_TIME ( #17, #66 ) ;
#175 = APPROVAL_PERSON_ORGANIZATION ( #130, #56, #15 ) ;
#176 = CALENDAR_DATE ( 2021, 26, 11 ) ;
#177 = DIRECTION ( 'NONE',  ( 4.275831445896957731E-31, 1.000000000000000000, 1.224646799147352961E-16 ) ) ;
#178 = PERSON_AND_ORGANIZATION ( #188, #143 ) ;
#179 = DIRECTION ( 'NONE',  ( -3.491481338843133355E-15, 1.224646799147352961E-16, -1.000000000000000000 ) ) ;
#180 = ADVANCED_FACE ( 'NONE', ( #119, #203 ), #122, .T. ) ;
#181 = FACE_OUTER_BOUND ( 'NONE', #173, .T. ) ;
#182 = PLANE ( 'NONE',  #244 ) ;
#183 = VERTEX_POINT ( 'NONE', #209 ) ;
#184 = DIRECTION ( 'NONE',  ( -3.491481338843133355E-15, 1.224646799147352961E-16, -1.000000000000000000 ) ) ;
#185 = AXIS2_PLACEMENT_3D ( 'NONE', #23, #229, #25 ) ;
#186 = CIRCLE ( 'NONE', #132, 1.499999999999996891 ) ;
#187 = VERTEX_POINT ( 'NONE', #69 ) ;
#188 = PERSON ( 'UNSPECIFIED', 'UNSPECIFIED', 'UNSPECIFIED', ('UNSPECIFIED'), ('UNSPECIFIED'), ('UNSPECIFIED') ) ;
#189 = ORIENTED_EDGE ( 'NONE', *, *, #103, .F. ) ;
#190 = APPLICATION_PROTOCOL_DEFINITION ( 'international standard', 'config_control_design', 1994, #64 ) ;
#191 = AXIS2_PLACEMENT_3D ( 'NONE', #21, #141, #114 ) ;
#192 = EDGE_CURVE ( 'NONE', #207, #207, #157, .T. ) ;
#193 = PERSON_AND_ORGANIZATION ( #188, #143 ) ;
#194 = CARTESIAN_POINT ( 'NONE',  ( -1.181967041123954004E-31, 4.145782300213380834E-33, -3.385288152551279872E-17 ) ) ;
#195 = EDGE_LOOP ( 'NONE', ( #257 ) ) ;
#196 = DATE_AND_TIME ( #176, #226 ) ;
#197 = CONICAL_SURFACE ( 'NONE', #230, 1.200000000000003286, 0.7853981633974453924 ) ;
#198 = COORDINATED_UNIVERSAL_TIME_OFFSET ( 1, 0, .AHEAD. ) ;
#199 = ORIENTED_EDGE ( 'NONE', *, *, #147, .F. ) ;
#200 = DIRECTION ( 'NONE',  ( -3.491481338843133355E-15, 1.224646799147352961E-16, -1.000000000000000000 ) ) ;
#201 = DIRECTION ( 'NONE',  ( -3.491481338843133355E-15, 1.224646799147352961E-16, -1.000000000000000000 ) ) ;
#202 = DATE_AND_TIME ( #208, #164 ) ;
#203 = FACE_OUTER_BOUND ( 'NONE', #234, .T. ) ;
#204 =( GEOMETRIC_REPRESENTATION_CONTEXT ( 3 ) GLOBAL_UNCERTAINTY_ASSIGNED_CONTEXT ( ( #245 ) ) GLOBAL_UNIT_ASSIGNED_CONTEXT ( ( #148, #11, #271 ) ) REPRESENTATION_CONTEXT ( 'NONE', 'WORKASPACE' ) );
#205 = ADVANCED_FACE ( 'NONE', ( #152, #27 ), #197, .T. ) ;
#206 = FACE_BOUND ( 'NONE', #242, .T. ) ;
#207 = VERTEX_POINT ( 'NONE', #270 ) ;
#208 = CALENDAR_DATE ( 2021, 26, 11 ) ;
#209 = CARTESIAN_POINT ( 'NONE',  ( 3.491481338843134341E-16, 0.2234999999999993936, 0.1000000000000000194 ) ) ;
#210 = AXIS2_PLACEMENT_3D ( 'NONE', #136, #201, #95 ) ;
#211 = EDGE_CURVE ( 'NONE', #183, #183, #235, .T. ) ;
#212 = PRODUCT_DEFINITION_FORMATION_WITH_SPECIFIED_SOURCE ( 'ANY', '', #92, .NOT_KNOWN. ) ;
#213 = DIRECTION ( 'NONE',  ( -3.491481338843133355E-15, 1.224646799147352961E-16, -1.000000000000000000 ) ) ;
#214 = EDGE_LOOP ( 'NONE', ( #217 ) ) ;
#215 = DIRECTION ( 'NONE',  ( 0.0000000000000000000, 1.000000000000000000, 0.0000000000000000000 ) ) ;
#216 = EDGE_LOOP ( 'NONE', ( #58 ) ) ;
#217 = ORIENTED_EDGE ( 'NONE', *, *, #16, .T. ) ;
#218 = APPROVAL_DATE_TIME ( #93, #56 ) ;
#219 = AXIS2_PLACEMENT_3D ( 'NONE', #247, #145, #250 ) ;
#220 = CARTESIAN_POINT ( 'NONE',  ( 0.0000000000000000000, 0.0000000000000000000, 0.0000000000000000000 ) ) ;
#221 = APPLICATION_PROTOCOL_DEFINITION ( 'international standard', 'config_control_design', 1994, #4 ) ;
#222 = APPROVAL_ROLE ( '' ) ;
#223 = DIRECTION ( 'NONE',  ( 0.0000000000000000000, 1.000000000000000000, 0.0000000000000000000 ) ) ;
#224 = ADVANCED_FACE ( 'NONE', ( #206, #71 ), #79, .T. ) ;
#225 = PERSON_AND_ORGANIZATION ( #188, #143 ) ;
#226 = LOCAL_TIME ( 15, 47, 28.00000000000000000, #19 ) ;
#227 = CARTESIAN_POINT ( 'NONE',  ( 1.047444401652940007E-14, -3.673940397442059375E-16, 3.000000000000000000 ) ) ;
#228 = PLANE ( 'NONE',  #185 ) ;
#229 = DIRECTION ( 'NONE',  ( 3.491481338843133355E-15, -1.224646799147352961E-16, 1.000000000000000000 ) ) ;
#230 = AXIS2_PLACEMENT_3D ( 'NONE', #266, #267, #215 ) ;
#231 = DIRECTION ( 'NONE',  ( 3.491481338843133355E-15, -1.224646799147352961E-16, 1.000000000000000000 ) ) ;
#232 = CARTESIAN_POINT ( 'NONE',  ( 3.491481338843133355E-16, -1.224646799147352807E-17, 0.09999999999999999167 ) ) ;
#233 = AXIS2_PLACEMENT_3D ( 'NONE', #170, #50, #249 ) ;
#234 = EDGE_LOOP ( 'NONE', ( #10 ) ) ;
#235 = CIRCLE ( 'NONE', #104, 0.2234999999999993936 ) ;
#236 = DIRECTION ( 'NONE',  ( -4.308568108248861523E-31, -1.000000000000000000, -1.212754107925623477E-16 ) ) ;
#237 = PRODUCT_RELATED_PRODUCT_CATEGORY ( 'detail', '', ( #92 ) ) ;
#238 = FACE_OUTER_BOUND ( 'NONE', #20, .T. ) ;
#239 = FACE_OUTER_BOUND ( 'NONE', #216, .T. ) ;
#240 = PERSON_AND_ORGANIZATION_ROLE ( 'design_owner' ) ;
#241 = AXIS2_PLACEMENT_3D ( 'NONE', #277, #91, #113 ) ;
#242 = EDGE_LOOP ( 'NONE', ( #47 ) ) ;
#243 = FACE_OUTER_BOUND ( 'NONE', #252, .T. ) ;
#244 = AXIS2_PLACEMENT_3D ( 'NONE', #138, #179, #177 ) ;
#245 = UNCERTAINTY_MEASURE_WITH_UNIT (LENGTH_MEASURE( 1.000000000000000082E-05 ), #148, 'distance_accuracy_value', 'NONE');
#246 = CC_DESIGN_APPROVAL ( #131, ( #212 ) ) ;
#247 = CARTESIAN_POINT ( 'NONE',  ( 1.745740669421566678E-14, -6.123233995736765296E-16, 5.000000000000000000 ) ) ;
#248 = ADVANCED_FACE ( 'NONE', ( #121, #2 ), #264, .T. ) ;
#249 = DIRECTION ( 'NONE',  ( 4.275831445896957731E-31, 1.000000000000000000, 1.224646799147352961E-16 ) ) ;
#250 = DIRECTION ( 'NONE',  ( 0.0000000000000000000, 1.000000000000000000, 0.0000000000000000000 ) ) ;
#251 = CC_DESIGN_SECURITY_CLASSIFICATION ( #161, ( #212 ) ) ;
#252 = EDGE_LOOP ( 'NONE', ( #37 ) ) ;
#253 = EDGE_CURVE ( 'NONE', #128, #128, #261, .T. ) ;
#254 = CARTESIAN_POINT ( 'NONE',  ( 4.334453619495689936E-14, -1.520321673243387527E-15, 12.41436856979412440 ) ) ;
#255 = FACE_OUTER_BOUND ( 'NONE', #214, .T. ) ;
#256 = PERSON_AND_ORGANIZATION ( #188, #143 ) ;
#257 = ORIENTED_EDGE ( 'NONE', *, *, #134, .F. ) ;
#258 = CARTESIAN_POINT ( 'NONE',  ( 1.316288464743861212E-13, -4.616918432785520292E-15, 37.69999999999999574 ) ) ;
#259 = CALENDAR_DATE ( 2021, 26, 11 ) ;
#260 = DIRECTION ( 'NONE',  ( -3.491481338843133355E-15, 1.224646799147352961E-16, -1.000000000000000000 ) ) ;
#261 = CIRCLE ( 'NONE', #109, 1.200000000000003286 ) ;
#262 = FACE_OUTER_BOUND ( 'NONE', #57, .T. ) ;
#263 = CC_DESIGN_PERSON_AND_ORGANIZATION_ASSIGNMENT ( #225, #116, ( #161 ) ) ;
#264 = CYLINDRICAL_SURFACE ( 'NONE', #115, 1.500000000000000000 ) ;
#265 = APPROVAL_ROLE ( '' ) ;
#266 = CARTESIAN_POINT ( 'NONE',  ( 1.326762908760390423E-13, -4.653657836759941152E-15, 38.00000000000000000 ) ) ;
#267 = DIRECTION ( 'NONE',  ( -3.491481338843133355E-15, 1.224646799147352961E-16, -1.000000000000000000 ) ) ;
#268 = MANIFOLD_SOLID_BREP ( 'Corps-Déplacer/Copier1[1]', #108 ) ;
#269 = TOROIDAL_SURFACE ( 'NONE', #210, 2.223499999999999588, 2.000000000000000000 ) ;
#270 = CARTESIAN_POINT ( 'NONE',  ( 1.866998543791203065E-14, 0.2538844939755809382, 5.347296355333847728 ) ) ;
#271 =( NAMED_UNIT ( * ) SI_UNIT ( $, .STERADIAN. ) SOLID_ANGLE_UNIT ( ) );
#272 = EDGE_CURVE ( 'NONE', #169, #169, #14, .T. ) ;
#273 = CARTESIAN_POINT ( 'NONE',  ( 0.0000000000000000000, 0.0000000000000000000, 0.0000000000000000000 ) ) ;
#274 = CALENDAR_DATE ( 2021, 26, 11 ) ;
#275 = FACE_OUTER_BOUND ( 'NONE', #195, .T. ) ;
#276 = PERSON_AND_ORGANIZATION_ROLE ( 'creator' ) ;
#277 = CARTESIAN_POINT ( 'NONE',  ( 1.047444401652940007E-14, -3.673940397442059375E-16, 3.000000000000000000 ) ) ;
#278 = PLANE ( 'NONE',  #191 ) ;
#279 = CC_DESIGN_PERSON_AND_ORGANIZATION_ASSIGNMENT ( #135, #240, ( #92 ) ) ;
#280 = PRODUCT_DEFINITION_SHAPE ( 'NONE', 'NONE',  #140 ) ;
#281 = AXIS2_PLACEMENT_3D ( 'NONE', #162, #142, #160 ) ;
#282 = DIRECTION ( 'NONE',  ( 0.0000000000000000000, 1.000000000000000000, 0.0000000000000000000 ) ) ;
#283 = VERTEX_POINT ( 'NONE', #51 ) ;
ENDSEC;
END-ISO-10303-21;
