ISO-10303-21;
HEADER;
FILE_DESCRIPTION (( 'STEP AP203' ),
    '1' );
FILE_NAME ('959802.step',
    '2021-11-26T14:47:28',
    ( '' ),
    ( '' ),
    'SwSTEP 2.0',
    'SolidWorks 2019',
    '' );
FILE_SCHEMA (( 'CONFIG_CONTROL_DESIGN' ));
ENDSEC;

DATA;
#1 = DIRECTION ( 'NONE',  ( 0.0000000000000000000, 1.000000000000000000, 0.0000000000000000000 ) ) ;
#2 = VERTEX_POINT ( 'NONE', #28 ) ;
#3 = DIRECTION ( 'NONE',  ( 0.0000000000000000000, -1.000000000000000000, 0.0000000000000000000 ) ) ;
#4 = LOCAL_TIME ( 15, 47, 28.00000000000000000, #253 ) ;
#5 = APPROVAL ( #35, 'UNSPECIFIED' ) ;
#6 = FACE_BOUND ( 'NONE', #51, .T. ) ;
#7 = CARTESIAN_POINT ( 'NONE',  ( 1.745740669421566678E-14, 0.2134999999999992737, 5.000000000000000000 ) ) ;
#8 = APPLICATION_CONTEXT ( 'configuration controlled 3d designs of mechanical parts and assemblies' ) ;
#9 = CARTESIAN_POINT ( 'NONE',  ( 1.866998543791202749E-14, 0.2438844939755797081, 5.347296355333846840 ) ) ;
#10 = AXIS2_PLACEMENT_3D ( 'NONE', #282, #158, #194 ) ;
#11 = PERSON_AND_ORGANIZATION_ROLE ( 'design_owner' ) ;
#12 = CALENDAR_DATE ( 2021, 26, 11 ) ;
#13 = DIRECTION ( 'NONE',  ( -3.491481338843133355E-15, 1.224646799147352961E-16, -1.000000000000000000 ) ) ;
#14 = ADVANCED_FACE ( 'NONE', ( #236, #40 ), #105, .T. ) ;
#15 = AXIS2_PLACEMENT_3D ( 'NONE', #113, #89, #16 ) ;
#16 = DIRECTION ( 'NONE',  ( 0.0000000000000000000, 1.000000000000000000, 0.0000000000000000000 ) ) ;
#17 = DIRECTION ( 'NONE',  ( 4.275831445896957731E-31, 1.000000000000000000, 1.224646799147352961E-16 ) ) ;
#18 = ORIENTED_EDGE ( 'NONE', *, *, #124, .T. ) ;
#19 = EDGE_CURVE ( 'NONE', #71, #71, #106, .T. ) ;
#20 = DIRECTION ( 'NONE',  ( -3.491481338843133355E-15, 1.224646799147352961E-16, -1.000000000000000000 ) ) ;
#21 = APPLICATION_CONTEXT ( 'configuration controlled 3d designs of mechanical parts and assemblies' ) ;
#22 = AXIS2_PLACEMENT_3D ( 'NONE', #183, #26, #142 ) ;
#23 = DIRECTION ( 'NONE',  ( -3.491481338843133355E-15, 1.224646799147352961E-16, -1.000000000000000000 ) ) ;
#24 = FACE_OUTER_BOUND ( 'NONE', #174, .T. ) ;
#25 = EDGE_LOOP ( 'NONE', ( #220 ) ) ;
#26 = DIRECTION ( 'NONE',  ( 3.491481338843133355E-15, -1.224646799147352961E-16, 1.000000000000000000 ) ) ;
#27 = CC_DESIGN_DATE_AND_TIME_ASSIGNMENT ( #36, #190, ( #80 ) ) ;
#28 = CARTESIAN_POINT ( 'NONE',  ( 3.491481338843134341E-16, 0.2134999999999993570, 0.1000000000000000194 ) ) ;
#29 = CC_DESIGN_APPROVAL ( #122, ( #80 ) ) ;
#30 =( LENGTH_UNIT ( ) NAMED_UNIT ( * ) SI_UNIT ( .MILLI., .METRE. ) );
#31 = ADVANCED_FACE ( 'NONE', ( #111, #135 ), #60, .F. ) ;
#32 = DIRECTION ( 'NONE',  ( -3.491481338843133355E-15, 1.224646799147352961E-16, -1.000000000000000000 ) ) ;
#33 = AXIS2_PLACEMENT_3D ( 'NONE', #47, #32, #143 ) ;
#34 = PERSON_AND_ORGANIZATION_ROLE ( 'classification_officer' ) ;
#35 = APPROVAL_STATUS ( 'not_yet_approved' ) ;
#36 = DATE_AND_TIME ( #275, #234 ) ;
#37 = AXIS2_PLACEMENT_3D ( 'NONE', #138, #159, #268 ) ;
#38 = PERSON_AND_ORGANIZATION ( #228, #241 ) ;
#39 = DIRECTION ( 'NONE',  ( 0.0000000000000000000, 1.000000000000000000, 0.0000000000000000000 ) ) ;
#40 = FACE_OUTER_BOUND ( 'NONE', #116, .T. ) ;
#41 = AXIS2_PLACEMENT_3D ( 'NONE', #70, #91, #195 ) ;
#42 = CARTESIAN_POINT ( 'NONE',  ( 1.745740669421566678E-14, -6.123233995736765296E-16, 5.000000000000000000 ) ) ;
#43 = EDGE_LOOP ( 'NONE', ( #244 ) ) ;
#44 = ORIENTED_EDGE ( 'NONE', *, *, #61, .F. ) ;
#45 = ORIENTED_EDGE ( 'NONE', *, *, #108, .T. ) ;
#46 = DIRECTION ( 'NONE',  ( 0.0000000000000000000, 1.000000000000000000, 0.0000000000000000000 ) ) ;
#47 = CARTESIAN_POINT ( 'NONE',  ( 1.326762908760390423E-13, -4.653657836759941152E-15, 38.00000000000000000 ) ) ;
#48 = ORIENTED_EDGE ( 'NONE', *, *, #124, .F. ) ;
#49 = FACE_OUTER_BOUND ( 'NONE', #139, .T. ) ;
#50 = APPROVAL ( #273, 'UNSPECIFIED' ) ;
#51 = EDGE_LOOP ( 'NONE', ( #277 ) ) ;
#52 =( NAMED_UNIT ( * ) SI_UNIT ( $, .STERADIAN. ) SOLID_ANGLE_UNIT ( ) );
#53 = DIRECTION ( 'NONE',  ( 3.491481338843133355E-15, -1.224646799147352961E-16, 1.000000000000000000 ) ) ;
#54 = PLANE ( 'NONE',  #281 ) ;
#55 = CARTESIAN_POINT ( 'NONE',  ( 0.0000000000000000000, 0.0000000000000000000, 0.0000000000000000000 ) ) ;
#56 = LOCAL_TIME ( 15, 47, 28.00000000000000000, #79 ) ;
#57 = PERSON_AND_ORGANIZATION ( #228, #241 ) ;
#58 = DATE_AND_TIME ( #78, #4 ) ;
#59 = PERSON_AND_ORGANIZATION_ROLE ( 'creator' ) ;
#60 = TOROIDAL_SURFACE ( 'NONE', #41, 2.213499999999999801, 2.000000000000000444 ) ;
#61 = EDGE_CURVE ( 'NONE', #198, #198, #266, .T. ) ;
#62 = PLANE ( 'NONE',  #196 ) ;
#63 = DIRECTION ( 'NONE',  ( 4.275831445896957731E-31, 1.000000000000000000, 1.224646799147352961E-16 ) ) ;
#64 = MANIFOLD_SOLID_BREP ( 'Corps-Déplacer/Copier1[2]', #90 ) ;
#65 = PLANE ( 'NONE',  #146 ) ;
#66 = EDGE_CURVE ( 'NONE', #223, #223, #191, .T. ) ;
#67 = ORIENTED_EDGE ( 'NONE', *, *, #66, .T. ) ;
#68 = APPROVAL_PERSON_ORGANIZATION ( #57, #50, #123 ) ;
#69 = FACE_OUTER_BOUND ( 'NONE', #199, .T. ) ;
#70 = CARTESIAN_POINT ( 'NONE',  ( 1.745740669421566678E-14, -4.336808689942017736E-16, 5.000000000000000000 ) ) ;
#71 = VERTEX_POINT ( 'NONE', #96 ) ;
#72 = CONICAL_SURFACE ( 'NONE', #170, 0.2134999999999993570, 0.5235987755982928205 ) ;
#73 = ORIENTED_EDGE ( 'NONE', *, *, #75, .T. ) ;
#74 = DIRECTION ( 'NONE',  ( -4.510374577019301286E-31, -1.000000000000000000, -1.269557579022842736E-16 ) ) ;
#75 = EDGE_CURVE ( 'NONE', #136, #136, #221, .T. ) ;
#76 = FACE_OUTER_BOUND ( 'NONE', #260, .T. ) ;
#77 = SHAPE_DEFINITION_REPRESENTATION ( #81, #119 ) ;
#78 = CALENDAR_DATE ( 2021, 26, 11 ) ;
#79 = COORDINATED_UNIVERSAL_TIME_OFFSET ( 1, 0, .AHEAD. ) ;
#80 = SECURITY_CLASSIFICATION ( '', '', #126 ) ;
#81 = PRODUCT_DEFINITION_SHAPE ( 'NONE', 'NONE',  #93 ) ;
#82 = APPROVAL_DATE_TIME ( #58, #50 ) ;
#83 = APPROVAL_STATUS ( 'not_yet_approved' ) ;
#84 =( GEOMETRIC_REPRESENTATION_CONTEXT ( 3 ) GLOBAL_UNCERTAINTY_ASSIGNED_CONTEXT ( ( #237 ) ) GLOBAL_UNIT_ASSIGNED_CONTEXT ( ( #30, #245, #52 ) ) REPRESENTATION_CONTEXT ( 'NONE', 'WORKASPACE' ) );
#85 = CARTESIAN_POINT ( 'NONE',  ( 1.047444401652940007E-14, 1.600993567991524293E-33, 3.000000000000000000 ) ) ;
#86 = FACE_OUTER_BOUND ( 'NONE', #177, .T. ) ;
#87 = ORIENTED_EDGE ( 'NONE', *, *, #101, .T. ) ;
#88 = EDGE_CURVE ( 'NONE', #2, #2, #141, .T. ) ;
#89 = DIRECTION ( 'NONE',  ( -3.491481338843133355E-15, 1.224646799147352961E-16, -1.000000000000000000 ) ) ;
#90 = CLOSED_SHELL ( 'NONE', ( #239, #181, #258, #129 ) ) ;
#91 = DIRECTION ( 'NONE',  ( -3.491481338843133355E-15, 1.224646799147352961E-16, -1.000000000000000000 ) ) ;
#92 = FACE_OUTER_BOUND ( 'NONE', #43, .T. ) ;
#93 = PRODUCT_DEFINITION ( 'UNKNOWN', '', #251, #133 ) ;
#94 = CARTESIAN_POINT ( 'NONE',  ( 1.316288464743861212E-13, 1.499999999999998668, 37.69999999999999574 ) ) ;
#95 = AXIS2_PLACEMENT_3D ( 'NONE', #109, #23, #235 ) ;
#96 = CARTESIAN_POINT ( 'NONE',  ( 1.047444401652940007E-14, 0.2134999999999993014, 3.000000000000000000 ) ) ;
#97 = FACE_OUTER_BOUND ( 'NONE', #178, .T. ) ;
#98 = VERTEX_POINT ( 'NONE', #162 ) ;
#99 = VERTEX_POINT ( 'NONE', #179 ) ;
#100 = CIRCLE ( 'NONE', #33, 1.200000000000003286 ) ;
#101 = EDGE_CURVE ( 'NONE', #98, #98, #164, .T. ) ;
#102 = PERSON_AND_ORGANIZATION ( #228, #241 ) ;
#103 = CC_DESIGN_SECURITY_CLASSIFICATION ( #80, ( #251 ) ) ;
#104 = PERSON_AND_ORGANIZATION ( #228, #241 ) ;
#105 = CYLINDRICAL_SURFACE ( 'NONE', #230, 0.2134999999999998010 ) ;
#106 = CIRCLE ( 'NONE', #270, 0.2134999999999996900 ) ;
#107 = DIRECTION ( 'NONE',  ( 4.510374577019301286E-31, 1.000000000000000000, 1.269557579022842736E-16 ) ) ;
#108 = EDGE_CURVE ( 'NONE', #182, #182, #130, .T. ) ;
#109 = CARTESIAN_POINT ( 'NONE',  ( 1.047444401652940007E-14, -3.673940397442059375E-16, 3.000000000000000000 ) ) ;
#110 = ORIENTED_EDGE ( 'NONE', *, *, #88, .T. ) ;
#111 = FACE_OUTER_BOUND ( 'NONE', #25, .T. ) ;
#112 = EDGE_LOOP ( 'NONE', ( #283 ) ) ;
#113 = CARTESIAN_POINT ( 'NONE',  ( 4.354254794136206802E-14, -1.527266990370845301E-15, 12.47108138799030286 ) ) ;
#114 = ADVANCED_FACE ( 'NONE', ( #86, #173 ), #215, .T. ) ;
#115 = DIRECTION ( 'NONE',  ( 3.491481338843133355E-15, -1.224646799147352961E-16, 1.000000000000000000 ) ) ;
#116 = EDGE_LOOP ( 'NONE', ( #73 ) ) ;
#117 = CARTESIAN_POINT ( 'NONE',  ( 0.0000000000000000000, 0.0000000000000000000, 0.0000000000000000000 ) ) ;
#118 = APPROVAL_PERSON_ORGANIZATION ( #276, #122, #149 ) ;
#119 = ADVANCED_BREP_SHAPE_REPRESENTATION ( '959802', ( #161, #64, #180 ), #84 ) ;
#120 = PLANE ( 'NONE',  #22 ) ;
#121 = APPROVAL_PERSON_ORGANIZATION ( #38, #5, #255 ) ;
#122 = APPROVAL ( #83, 'UNSPECIFIED' ) ;
#123 = APPROVAL_ROLE ( '' ) ;
#124 = EDGE_CURVE ( 'NONE', #267, #267, #224, .T. ) ;
#125 = AXIS2_PLACEMENT_3D ( 'NONE', #197, #209, #1 ) ;
#126 = SECURITY_CLASSIFICATION_LEVEL ( 'unclassified' ) ;
#127 = DIRECTION ( 'NONE',  ( -4.275831445896957731E-31, -1.000000000000000000, -1.224646799147352961E-16 ) ) ;
#128 = ORIENTED_EDGE ( 'NONE', *, *, #229, .T. ) ;
#129 = ADVANCED_FACE ( 'NONE', ( #92 ), #62, .T. ) ;
#130 = CIRCLE ( 'NONE', #10, 0.2438844939755803742 ) ;
#131 = CONICAL_SURFACE ( 'NONE', #184, 1.499999999999996891, 0.1745329251994261754 ) ;
#132 = CARTESIAN_POINT ( 'NONE',  ( 1.326762908760390423E-13, 8.998558695971099120E-33, 38.00000000000000000 ) ) ;
#133 = DESIGN_CONTEXT ( 'detailed design', #21, 'design' ) ;
#134 = CC_DESIGN_PERSON_AND_ORGANIZATION_ASSIGNMENT ( #227, #59, ( #251 ) ) ;
#135 = FACE_OUTER_BOUND ( 'NONE', #154, .T. ) ;
#136 = VERTEX_POINT ( 'NONE', #7 ) ;
#137 = EDGE_LOOP ( 'NONE', ( #44 ) ) ;
#138 = CARTESIAN_POINT ( 'NONE',  ( 0.0000000000000000000, 0.0000000000000000000, 0.0000000000000000000 ) ) ;
#139 = EDGE_LOOP ( 'NONE', ( #18 ) ) ;
#140 = DIRECTION ( 'NONE',  ( -4.275831445896957731E-31, -1.000000000000000000, -1.224646799147352961E-16 ) ) ;
#141 = CIRCLE ( 'NONE', #206, 0.2134999999999993570 ) ;
#142 = DIRECTION ( 'NONE',  ( -4.275831445896957731E-31, -1.000000000000000000, -1.224646799147352961E-16 ) ) ;
#143 = DIRECTION ( 'NONE',  ( 0.0000000000000000000, 1.000000000000000000, 0.0000000000000000000 ) ) ;
#144 = CC_DESIGN_PERSON_AND_ORGANIZATION_ASSIGNMENT ( #102, #11, ( #147 ) ) ;
#145 = APPROVAL_DATE_TIME ( #148, #5 ) ;
#146 = AXIS2_PLACEMENT_3D ( 'NONE', #132, #175, #63 ) ;
#147 = PRODUCT ( '959802', '959802', '', ( #165 ) ) ;
#148 = DATE_AND_TIME ( #250, #56 ) ;
#149 = APPROVAL_ROLE ( '' ) ;
#150 = AXIS2_PLACEMENT_3D ( 'NONE', #42, #232, #39 ) ;
#151 = EDGE_LOOP ( 'NONE', ( #213 ) ) ;
#152 = ADVANCED_FACE ( 'NONE', ( #280 ), #65, .F. ) ;
#153 = FACE_BOUND ( 'NONE', #137, .T. ) ;
#154 = EDGE_LOOP ( 'NONE', ( #45 ) ) ;
#155 = CARTESIAN_POINT ( 'NONE',  ( 0.0000000000000000000, 0.0000000000000000000, 0.0000000000000000000 ) ) ;
#156 = LOCAL_TIME ( 15, 47, 28.00000000000000000, #207 ) ;
#157 = EDGE_LOOP ( 'NONE', ( #128 ) ) ;
#158 = DIRECTION ( 'NONE',  ( -3.491481338843133355E-15, 1.224646799147352961E-16, -1.000000000000000000 ) ) ;
#159 = DIRECTION ( 'NONE',  ( -3.491481338843133355E-15, 1.224646799147352961E-16, -1.000000000000000000 ) ) ;
#160 = ORIENTED_EDGE ( 'NONE', *, *, #101, .F. ) ;
#161 = MANIFOLD_SOLID_BREP ( 'Corps-Déplacer/Copier1[1]', #176 ) ;
#162 = CARTESIAN_POINT ( 'NONE',  ( 1.047444401652940007E-14, 0.2134999999999993014, 3.000000000000000000 ) ) ;
#163 = DIRECTION ( 'NONE',  ( 3.491481338843133355E-15, -1.224646799147352961E-16, 1.000000000000000000 ) ) ;
#164 = CIRCLE ( 'NONE', #95, 0.2134999999999996900 ) ;
#165 = MECHANICAL_CONTEXT ( 'NONE', #8, 'mechanical' ) ;
#166 = PERSON_AND_ORGANIZATION ( #228, #241 ) ;
#167 = CC_DESIGN_APPROVAL ( #50, ( #251 ) ) ;
#168 = APPLICATION_PROTOCOL_DEFINITION ( 'international standard', 'config_control_design', 1994, #8 ) ;
#169 = DIRECTION ( 'NONE',  ( 1.000000000000000000, 0.0000000000000000000, 0.0000000000000000000 ) ) ;
#170 = AXIS2_PLACEMENT_3D ( 'NONE', #233, #115, #74 ) ;
#171 = CC_DESIGN_PERSON_AND_ORGANIZATION_ASSIGNMENT ( #166, #34, ( #80 ) ) ;
#172 = DIRECTION ( 'NONE',  ( 3.491481338843133355E-15, -1.224646799147352961E-16, 1.000000000000000000 ) ) ;
#173 = FACE_BOUND ( 'NONE', #157, .T. ) ;
#174 = EDGE_LOOP ( 'NONE', ( #87 ) ) ;
#175 = DIRECTION ( 'NONE',  ( -3.491481338843133355E-15, 1.224646799147352961E-16, -1.000000000000000000 ) ) ;
#176 = CLOSED_SHELL ( 'NONE', ( #272, #14, #31, #254, #208, #114, #152 ) ) ;
#177 = EDGE_LOOP ( 'NONE', ( #48 ) ) ;
#178 = EDGE_LOOP ( 'NONE', ( #218 ) ) ;
#179 = CARTESIAN_POINT ( 'NONE',  ( 1.326762908760390423E-13, 1.199999999999998845, 38.00000000000000000 ) ) ;
#180 = AXIS2_PLACEMENT_3D ( 'NONE', #55, #226, #169 ) ;
#181 = ADVANCED_FACE ( 'NONE', ( #153, #69 ), #72, .T. ) ;
#182 = VERTEX_POINT ( 'NONE', #9 ) ;
#183 = CARTESIAN_POINT ( 'NONE',  ( 1.047444401652940007E-14, 1.600993567991524293E-33, 3.000000000000000000 ) ) ;
#184 = AXIS2_PLACEMENT_3D ( 'NONE', #219, #163, #3 ) ;
#185 = APPROVAL_DATE_TIME ( #271, #122 ) ;
#186 = CALENDAR_DATE ( 2021, 26, 11 ) ;
#187 = DATE_AND_TIME ( #186, #210 ) ;
#188 = CC_DESIGN_APPROVAL ( #5, ( #93 ) ) ;
#189 = COORDINATED_UNIVERSAL_TIME_OFFSET ( 1, 0, .AHEAD. ) ;
#190 = DATE_TIME_ROLE ( 'classification_date' ) ;
#191 = CIRCLE ( 'NONE', #15, 1.499999999999996891 ) ;
#192 = CARTESIAN_POINT ( 'NONE',  ( 3.491481338843133355E-16, -1.224646799147352807E-17, 0.09999999999999999167 ) ) ;
#193 = CARTESIAN_POINT ( 'NONE',  ( -6.660247700691936344E-32, 2.336100421743469490E-33, -1.907570757029663048E-17 ) ) ;
#194 = DIRECTION ( 'NONE',  ( 0.0000000000000000000, 1.000000000000000000, 0.0000000000000000000 ) ) ;
#195 = DIRECTION ( 'NONE',  ( 4.401880072469923124E-31, 1.000000000000000000, 1.224646799147352961E-16 ) ) ;
#196 = AXIS2_PLACEMENT_3D ( 'NONE', #85, #172, #127 ) ;
#197 = CARTESIAN_POINT ( 'NONE',  ( 1.316288464743861212E-13, -4.616918432785520292E-15, 37.69999999999999574 ) ) ;
#198 = VERTEX_POINT ( 'NONE', #222 ) ;
#199 = EDGE_LOOP ( 'NONE', ( #110 ) ) ;
#200 = DIRECTION ( 'NONE',  ( -3.491481338843133355E-15, 1.224646799147352961E-16, -1.000000000000000000 ) ) ;
#201 = AXIS2_PLACEMENT_3D ( 'NONE', #238, #263, #46 ) ;
#202 = CARTESIAN_POINT ( 'NONE',  ( -3.330123850345968172E-32, 1.168050210871734745E-33, -9.537853785148315239E-18 ) ) ;
#203 = CARTESIAN_POINT ( 'NONE',  ( 4.354254794136206802E-14, 1.499999999999995559, 12.47108138799030286 ) ) ;
#204 = CC_DESIGN_PERSON_AND_ORGANIZATION_ASSIGNMENT ( #104, #248, ( #93 ) ) ;
#205 = PERSON_AND_ORGANIZATION_ROLE ( 'design_supplier' ) ;
#206 = AXIS2_PLACEMENT_3D ( 'NONE', #192, #13, #107 ) ;
#207 = COORDINATED_UNIVERSAL_TIME_OFFSET ( 1, 0, .AHEAD. ) ;
#208 = ADVANCED_FACE ( 'NONE', ( #246, #49 ), #216, .T. ) ;
#209 = DIRECTION ( 'NONE',  ( -3.491481338843133355E-15, 1.224646799147352961E-16, -1.000000000000000000 ) ) ;
#210 = LOCAL_TIME ( 15, 47, 28.00000000000000000, #231 ) ;
#211 = DIRECTION ( 'NONE',  ( 4.275831445896957731E-31, 1.000000000000000000, 1.224646799147352961E-16 ) ) ;
#212 = CARTESIAN_POINT ( 'NONE',  ( 1.047444401652940007E-14, -3.673940397442059375E-16, 3.000000000000000000 ) ) ;
#213 = ORIENTED_EDGE ( 'NONE', *, *, #229, .F. ) ;
#214 = EDGE_LOOP ( 'NONE', ( #242 ) ) ;
#215 = CONICAL_SURFACE ( 'NONE', #201, 1.200000000000003286, 0.7853981633974453924 ) ;
#216 = CYLINDRICAL_SURFACE ( 'NONE', #37, 1.500000000000000000 ) ;
#217 = CC_DESIGN_DATE_AND_TIME_ASSIGNMENT ( #187, #252, ( #93 ) ) ;
#218 = ORIENTED_EDGE ( 'NONE', *, *, #88, .F. ) ;
#219 = CARTESIAN_POINT ( 'NONE',  ( 4.354254794136206802E-14, -1.527266990370845301E-15, 12.47108138799030286 ) ) ;
#220 = ORIENTED_EDGE ( 'NONE', *, *, #75, .F. ) ;
#221 = CIRCLE ( 'NONE', #150, 0.2134999999999999121 ) ;
#222 = CARTESIAN_POINT ( 'NONE',  ( 0.0000000000000000000, 0.1557649730810375943, 0.0000000000000000000 ) ) ;
#223 = VERTEX_POINT ( 'NONE', #203 ) ;
#224 = CIRCLE ( 'NONE', #125, 1.500000000000003331 ) ;
#225 = PERSON_AND_ORGANIZATION ( #228, #241 ) ;
#226 = DIRECTION ( 'NONE',  ( 0.0000000000000000000, 0.0000000000000000000, 1.000000000000000000 ) ) ;
#227 = PERSON_AND_ORGANIZATION ( #228, #241 ) ;
#228 = PERSON ( 'UNSPECIFIED', 'UNSPECIFIED', 'UNSPECIFIED', ('UNSPECIFIED'), ('UNSPECIFIED'), ('UNSPECIFIED') ) ;
#229 = EDGE_CURVE ( 'NONE', #99, #99, #100, .T. ) ;
#230 = AXIS2_PLACEMENT_3D ( 'NONE', #155, #259, #17 ) ;
#231 = COORDINATED_UNIVERSAL_TIME_OFFSET ( 1, 0, .AHEAD. ) ;
#232 = DIRECTION ( 'NONE',  ( -3.491481338843133355E-15, 1.224646799147352961E-16, -1.000000000000000000 ) ) ;
#233 = CARTESIAN_POINT ( 'NONE',  ( 3.491481338843133355E-16, -1.224646799147352807E-17, 0.09999999999999999167 ) ) ;
#234 = LOCAL_TIME ( 15, 47, 28.00000000000000000, #189 ) ;
#235 = DIRECTION ( 'NONE',  ( 0.0000000000000000000, 1.000000000000000000, 0.0000000000000000000 ) ) ;
#236 = FACE_OUTER_BOUND ( 'NONE', #264, .T. ) ;
#237 = UNCERTAINTY_MEASURE_WITH_UNIT (LENGTH_MEASURE( 1.000000000000000082E-05 ), #30, 'distance_accuracy_value', 'NONE');
#238 = CARTESIAN_POINT ( 'NONE',  ( 1.326762908760390423E-13, -4.653657836759941152E-15, 38.00000000000000000 ) ) ;
#239 = ADVANCED_FACE ( 'NONE', ( #265 ), #54, .F. ) ;
#240 = CYLINDRICAL_SURFACE ( 'NONE', #256, 0.2134999999999995235 ) ;
#241 = ORGANIZATION ( 'UNSPECIFIED', 'UNSPECIFIED', '' ) ;
#242 = ORIENTED_EDGE ( 'NONE', *, *, #66, .F. ) ;
#243 = DIRECTION ( 'NONE',  ( 4.275831445896957731E-31, 1.000000000000000000, 1.224646799147352961E-16 ) ) ;
#244 = ORIENTED_EDGE ( 'NONE', *, *, #19, .F. ) ;
#245 =( NAMED_UNIT ( * ) PLANE_ANGLE_UNIT ( ) SI_UNIT ( $, .RADIAN. ) );
#246 = FACE_OUTER_BOUND ( 'NONE', #214, .T. ) ;
#247 = AXIS2_PLACEMENT_3D ( 'NONE', #193, #279, #211 ) ;
#248 = PERSON_AND_ORGANIZATION_ROLE ( 'creator' ) ;
#249 = PRODUCT_RELATED_PRODUCT_CATEGORY ( 'detail', '', ( #147 ) ) ;
#250 = CALENDAR_DATE ( 2021, 26, 11 ) ;
#251 = PRODUCT_DEFINITION_FORMATION_WITH_SPECIFIED_SOURCE ( 'ANY', '', #147, .NOT_KNOWN. ) ;
#252 = DATE_TIME_ROLE ( 'creation_date' ) ;
#253 = COORDINATED_UNIVERSAL_TIME_OFFSET ( 1, 0, .AHEAD. ) ;
#254 = ADVANCED_FACE ( 'NONE', ( #6, #76 ), #131, .T. ) ;
#255 = APPROVAL_ROLE ( '' ) ;
#256 = AXIS2_PLACEMENT_3D ( 'NONE', #117, #200, #243 ) ;
#257 = DIRECTION ( 'NONE',  ( 0.0000000000000000000, 1.000000000000000000, 0.0000000000000000000 ) ) ;
#258 = ADVANCED_FACE ( 'NONE', ( #97, #269 ), #240, .T. ) ;
#259 = DIRECTION ( 'NONE',  ( -3.491481338843133355E-15, 1.224646799147352961E-16, -1.000000000000000000 ) ) ;
#260 = EDGE_LOOP ( 'NONE', ( #67 ) ) ;
#261 = EDGE_LOOP ( 'NONE', ( #262 ) ) ;
#262 = ORIENTED_EDGE ( 'NONE', *, *, #19, .T. ) ;
#263 = DIRECTION ( 'NONE',  ( -3.491481338843133355E-15, 1.224646799147352961E-16, -1.000000000000000000 ) ) ;
#264 = EDGE_LOOP ( 'NONE', ( #160 ) ) ;
#265 = FACE_OUTER_BOUND ( 'NONE', #112, .T. ) ;
#266 = CIRCLE ( 'NONE', #247, 0.1557649730810375943 ) ;
#267 = VERTEX_POINT ( 'NONE', #94 ) ;
#268 = DIRECTION ( 'NONE',  ( 4.275831445896957731E-31, 1.000000000000000000, 1.224646799147353207E-16 ) ) ;
#269 = FACE_OUTER_BOUND ( 'NONE', #261, .T. ) ;
#270 = AXIS2_PLACEMENT_3D ( 'NONE', #212, #20, #257 ) ;
#271 = DATE_AND_TIME ( #12, #156 ) ;
#272 = ADVANCED_FACE ( 'NONE', ( #24 ), #120, .F. ) ;
#273 = APPROVAL_STATUS ( 'not_yet_approved' ) ;
#274 = APPLICATION_PROTOCOL_DEFINITION ( 'international standard', 'config_control_design', 1994, #21 ) ;
#275 = CALENDAR_DATE ( 2021, 26, 11 ) ;
#276 = PERSON_AND_ORGANIZATION ( #228, #241 ) ;
#277 = ORIENTED_EDGE ( 'NONE', *, *, #108, .F. ) ;
#278 = CC_DESIGN_PERSON_AND_ORGANIZATION_ASSIGNMENT ( #225, #205, ( #251 ) ) ;
#279 = DIRECTION ( 'NONE',  ( -3.491481338843133355E-15, 1.224646799147352961E-16, -1.000000000000000000 ) ) ;
#280 = FACE_OUTER_BOUND ( 'NONE', #151, .T. ) ;
#281 = AXIS2_PLACEMENT_3D ( 'NONE', #202, #53, #140 ) ;
#282 = CARTESIAN_POINT ( 'NONE',  ( 1.866998543791202749E-14, -6.548549365651902423E-16, 5.347296355333846840 ) ) ;
#283 = ORIENTED_EDGE ( 'NONE', *, *, #61, .T. ) ;
ENDSEC;
END-ISO-10303-21;
