ISO-10303-21;
HEADER;
FILE_DESCRIPTION (( 'STEP AP203' ),
    '1' );
FILE_NAME ('959801.step',
    '2021-11-26T14:47:27',
    ( '' ),
    ( '' ),
    'SwSTEP 2.0',
    'SolidWorks 2019',
    '' );
FILE_SCHEMA (( 'CONFIG_CONTROL_DESIGN' ));
ENDSEC;

DATA;
#1 = ADVANCED_FACE ( 'NONE', ( #94 ), #182, .F. ) ;
#2 = DIRECTION ( 'NONE',  ( 0.0000000000000000000, 1.000000000000000000, 0.0000000000000000000 ) ) ;
#3 = LOCAL_TIME ( 15, 47, 27.00000000000000000, #44 ) ;
#4 = AXIS2_PLACEMENT_3D ( 'NONE', #13, #167, #57 ) ;
#5 = CC_DESIGN_APPROVAL ( #53, ( #249 ) ) ;
#6 = PERSON_AND_ORGANIZATION ( #43, #75 ) ;
#7 = ADVANCED_FACE ( 'NONE', ( #168, #96 ), #144, .T. ) ;
#8 = ORIENTED_EDGE ( 'NONE', *, *, #89, .T. ) ;
#9 = CC_DESIGN_PERSON_AND_ORGANIZATION_ASSIGNMENT ( #22, #184, ( #10 ) ) ;
#10 = PRODUCT ( '959801', '959801', '', ( #233 ) ) ;
#11 = ORIENTED_EDGE ( 'NONE', *, *, #142, .F. ) ;
#12 = LOCAL_TIME ( 15, 47, 27.00000000000000000, #42 ) ;
#13 = CARTESIAN_POINT ( 'NONE',  ( 0.0000000000000000000, 0.0000000000000000000, 0.0000000000000000000 ) ) ;
#14 = ORIENTED_EDGE ( 'NONE', *, *, #107, .F. ) ;
#15 = EDGE_LOOP ( 'NONE', ( #95 ) ) ;
#16 = DIRECTION ( 'NONE',  ( -3.491481338843133355E-15, 1.224646799147352961E-16, -1.000000000000000000 ) ) ;
#17 =( LENGTH_UNIT ( ) NAMED_UNIT ( * ) SI_UNIT ( .MILLI., .METRE. ) );
#18 = DIRECTION ( 'NONE',  ( 0.0000000000000000000, -1.000000000000000000, 0.0000000000000000000 ) ) ;
#19 = PRODUCT_DEFINITION_FORMATION_WITH_SPECIFIED_SOURCE ( 'ANY', '', #10, .NOT_KNOWN. ) ;
#20 = CARTESIAN_POINT ( 'NONE',  ( 1.326762908760390423E-13, -4.653657836759941152E-15, 38.00000000000000000 ) ) ;
#21 = CYLINDRICAL_SURFACE ( 'NONE', #147, 0.2034999999999995146 ) ;
#22 = PERSON_AND_ORGANIZATION ( #43, #75 ) ;
#23 = AXIS2_PLACEMENT_3D ( 'NONE', #116, #73, #272 ) ;
#24 = AXIS2_PLACEMENT_3D ( 'NONE', #217, #121, #189 ) ;
#25 = EDGE_CURVE ( 'NONE', #185, #185, #218, .T. ) ;
#26 = DATE_AND_TIME ( #88, #223 ) ;
#27 = EDGE_CURVE ( 'NONE', #191, #191, #105, .T. ) ;
#28 = CALENDAR_DATE ( 2021, 26, 11 ) ;
#29 = EDGE_LOOP ( 'NONE', ( #181 ) ) ;
#30 = CYLINDRICAL_SURFACE ( 'NONE', #4, 1.500000000000000000 ) ;
#31 = DIRECTION ( 'NONE',  ( 4.275831445896957731E-31, 1.000000000000000000, 1.224646799147352961E-16 ) ) ;
#32 = CC_DESIGN_DATE_AND_TIME_ASSIGNMENT ( #68, #266, ( #249 ) ) ;
#33 = DIRECTION ( 'NONE',  ( -3.491481338843133355E-15, 1.224646799147352961E-16, -1.000000000000000000 ) ) ;
#34 = DIRECTION ( 'NONE',  ( 3.491481338843133355E-15, -1.224646799147352961E-16, 1.000000000000000000 ) ) ;
#35 = CARTESIAN_POINT ( 'NONE',  ( 1.745740669421566678E-14, -6.123233995736765296E-16, 5.000000000000000000 ) ) ;
#36 = FACE_OUTER_BOUND ( 'NONE', #15, .T. ) ;
#37 = AXIS2_PLACEMENT_3D ( 'NONE', #282, #76, #229 ) ;
#38 = EDGE_LOOP ( 'NONE', ( #11 ) ) ;
#39 = DIRECTION ( 'NONE',  ( -4.275831445896957731E-31, -1.000000000000000000, -1.224646799147352961E-16 ) ) ;
#40 = CARTESIAN_POINT ( 'NONE',  ( -4.731839565957903391E-32, 0.1457649730810376132, -1.355252715606880234E-17 ) ) ;
#41 = COORDINATED_UNIVERSAL_TIME_OFFSET ( 1, 0, .AHEAD. ) ;
#42 = COORDINATED_UNIVERSAL_TIME_OFFSET ( 1, 0, .AHEAD. ) ;
#43 = PERSON ( 'UNSPECIFIED', 'UNSPECIFIED', 'UNSPECIFIED', ('UNSPECIFIED'), ('UNSPECIFIED'), ('UNSPECIFIED') ) ;
#44 = COORDINATED_UNIVERSAL_TIME_OFFSET ( 1, 0, .AHEAD. ) ;
#45 = ORIENTED_EDGE ( 'NONE', *, *, #250, .F. ) ;
#46 = AXIS2_PLACEMENT_3D ( 'NONE', #278, #33, #274 ) ;
#47 = DATE_AND_TIME ( #240, #3 ) ;
#48 = EDGE_LOOP ( 'NONE', ( #156 ) ) ;
#49 = EDGE_LOOP ( 'NONE', ( #151 ) ) ;
#50 = EDGE_LOOP ( 'NONE', ( #271 ) ) ;
#51 = EDGE_LOOP ( 'NONE', ( #202 ) ) ;
#52 = CIRCLE ( 'NONE', #72, 0.2034999999999996811 ) ;
#53 = APPROVAL ( #61, 'UNSPECIFIED' ) ;
#54 = FACE_OUTER_BOUND ( 'NONE', #246, .T. ) ;
#55 = CIRCLE ( 'NONE', #161, 1.500000000000003331 ) ;
#56 = DIRECTION ( 'NONE',  ( -3.491481338843133355E-15, 1.224646799147352961E-16, -1.000000000000000000 ) ) ;
#57 = DIRECTION ( 'NONE',  ( 4.275831445896957731E-31, 1.000000000000000000, 1.224646799147353207E-16 ) ) ;
#58 = DIRECTION ( 'NONE',  ( -3.491481338843133355E-15, 1.224646799147352961E-16, -1.000000000000000000 ) ) ;
#59 = EDGE_CURVE ( 'NONE', #238, #238, #212, .T. ) ;
#60 = PLANE ( 'NONE',  #155 ) ;
#61 = APPROVAL_STATUS ( 'not_yet_approved' ) ;
#62 = APPROVAL_DATE_TIME ( #87, #53 ) ;
#63 = CLOSED_SHELL ( 'NONE', ( #210, #7, #188, #279, #103, #114, #111 ) ) ;
#64 = LOCAL_TIME ( 15, 47, 27.00000000000000000, #133 ) ;
#65 = DATE_AND_TIME ( #243, #64 ) ;
#66 = EDGE_LOOP ( 'NONE', ( #8 ) ) ;
#67 = CALENDAR_DATE ( 2021, 26, 11 ) ;
#68 = DATE_AND_TIME ( #67, #12 ) ;
#69 = ORIENTED_EDGE ( 'NONE', *, *, #27, .T. ) ;
#70 = CARTESIAN_POINT ( 'NONE',  ( -5.482252061030072452E-32, 1.922915171840503904E-33, -1.570179396360903962E-17 ) ) ;
#71 = CARTESIAN_POINT ( 'NONE',  ( -1.096450412206014490E-31, 3.845830343681007807E-33, -3.140358792721807924E-17 ) ) ;
#72 = AXIS2_PLACEMENT_3D ( 'NONE', #165, #56, #104 ) ;
#73 = DIRECTION ( 'NONE',  ( -3.491481338843133355E-15, 1.224646799147352961E-16, -1.000000000000000000 ) ) ;
#74 = FACE_OUTER_BOUND ( 'NONE', #49, .T. ) ;
#75 = ORGANIZATION ( 'UNSPECIFIED', 'UNSPECIFIED', '' ) ;
#76 = DIRECTION ( 'NONE',  ( -3.491481338843133355E-15, 1.224646799147352961E-16, -1.000000000000000000 ) ) ;
#77 = FACE_OUTER_BOUND ( 'NONE', #90, .T. ) ;
#78 = CC_DESIGN_PERSON_AND_ORGANIZATION_ASSIGNMENT ( #225, #222, ( #249 ) ) ;
#79 =( NAMED_UNIT ( * ) PLANE_ANGLE_UNIT ( ) SI_UNIT ( $, .RADIAN. ) );
#80 = CARTESIAN_POINT ( 'NONE',  ( 1.316288464743861212E-13, 1.499999999999998668, 37.69999999999999574 ) ) ;
#81 = FACE_OUTER_BOUND ( 'NONE', #198, .T. ) ;
#82 = CC_DESIGN_APPROVAL ( #129, ( #92 ) ) ;
#83 = PRODUCT_RELATED_PRODUCT_CATEGORY ( 'detail', '', ( #10 ) ) ;
#84 = APPROVAL_STATUS ( 'not_yet_approved' ) ;
#85 = ADVANCED_FACE ( 'NONE', ( #178, #138 ), #254, .T. ) ;
#86 = APPROVAL_PERSON_ORGANIZATION ( #6, #150, #197 ) ;
#87 = DATE_AND_TIME ( #28, #98 ) ;
#88 = CALENDAR_DATE ( 2021, 26, 11 ) ;
#89 = EDGE_CURVE ( 'NONE', #173, #173, #55, .T. ) ;
#90 = EDGE_LOOP ( 'NONE', ( #241 ) ) ;
#91 = AXIS2_PLACEMENT_3D ( 'NONE', #263, #34, #18 ) ;
#92 = PRODUCT_DEFINITION ( 'UNKNOWN', '', #19, #280 ) ;
#93 = EDGE_LOOP ( 'NONE', ( #110 ) ) ;
#94 = FACE_OUTER_BOUND ( 'NONE', #205, .T. ) ;
#95 = ORIENTED_EDGE ( 'NONE', *, *, #118, .F. ) ;
#96 = FACE_OUTER_BOUND ( 'NONE', #199, .T. ) ;
#97 = CLOSED_SHELL ( 'NONE', ( #1, #85, #206, #131 ) ) ;
#98 = LOCAL_TIME ( 15, 47, 27.00000000000000000, #41 ) ;
#99 = DIRECTION ( 'NONE',  ( -3.491481338843133355E-15, 1.224646799147352961E-16, -1.000000000000000000 ) ) ;
#100 = TOROIDAL_SURFACE ( 'NONE', #277, 2.203499999999999570, 2.000000000000000000 ) ;
#101 = CARTESIAN_POINT ( 'NONE',  ( 1.745740669421566678E-14, -4.336808689942017736E-16, 5.000000000000000000 ) ) ;
#102 = FACE_OUTER_BOUND ( 'NONE', #38, .T. ) ;
#103 = ADVANCED_FACE ( 'NONE', ( #54, #134 ), #30, .T. ) ;
#104 = DIRECTION ( 'NONE',  ( 0.0000000000000000000, 1.000000000000000000, 0.0000000000000000000 ) ) ;
#105 = CIRCLE ( 'NONE', #269, 0.1457649730810376132 ) ;
#106 = PERSON_AND_ORGANIZATION ( #43, #75 ) ;
#107 = EDGE_CURVE ( 'NONE', #112, #112, #122, .T. ) ;
#108 = AXIS2_PLACEMENT_3D ( 'NONE', #270, #228, #251 ) ;
#109 = APPROVAL_PERSON_ORGANIZATION ( #255, #129, #242 ) ;
#110 = ORIENTED_EDGE ( 'NONE', *, *, #59, .T. ) ;
#111 = ADVANCED_FACE ( 'NONE', ( #232 ), #208, .F. ) ;
#112 = VERTEX_POINT ( 'NONE', #201 ) ;
#113 = AXIS2_PLACEMENT_3D ( 'NONE', #124, #216, #120 ) ;
#114 = ADVANCED_FACE ( 'NONE', ( #77, #211 ), #137, .T. ) ;
#115 = CARTESIAN_POINT ( 'NONE',  ( 1.316288464743861212E-13, -4.616918432785520292E-15, 37.69999999999999574 ) ) ;
#116 = CARTESIAN_POINT ( 'NONE',  ( 4.374055968776723668E-14, -1.534212307498303273E-15, 12.52779420618648487 ) ) ;
#117 = CARTESIAN_POINT ( 'NONE',  ( 1.326762908760390423E-13, 8.998558695971099120E-33, 38.00000000000000000 ) ) ;
#118 = EDGE_CURVE ( 'NONE', #252, #252, #234, .T. ) ;
#119 = DIRECTION ( 'NONE',  ( -4.275831445896957731E-31, -1.000000000000000000, -1.224646799147352961E-16 ) ) ;
#120 = DIRECTION ( 'NONE',  ( 1.000000000000000000, 0.0000000000000000000, 0.0000000000000000000 ) ) ;
#121 = DIRECTION ( 'NONE',  ( -3.491481338843133355E-15, 1.224646799147352961E-16, -1.000000000000000000 ) ) ;
#122 = CIRCLE ( 'NONE', #37, 1.200000000000003286 ) ;
#123 = CARTESIAN_POINT ( 'NONE',  ( 0.0000000000000000000, 0.0000000000000000000, 0.0000000000000000000 ) ) ;
#124 = CARTESIAN_POINT ( 'NONE',  ( 0.0000000000000000000, 0.0000000000000000000, 0.0000000000000000000 ) ) ;
#125 = MANIFOLD_SOLID_BREP ( 'Corps-Déplacer/Copier1[1]', #63 ) ;
#126 = CARTESIAN_POINT ( 'NONE',  ( 0.0000000000000000000, 0.0000000000000000000, 0.0000000000000000000 ) ) ;
#127 = AXIS2_PLACEMENT_3D ( 'NONE', #236, #140, #39 ) ;
#128 = PERSON_AND_ORGANIZATION ( #43, #75 ) ;
#129 = APPROVAL ( #132, 'UNSPECIFIED' ) ;
#130 = PERSON_AND_ORGANIZATION_ROLE ( 'design_supplier' ) ;
#131 = ADVANCED_FACE ( 'NONE', ( #102 ), #60, .T. ) ;
#132 = APPROVAL_STATUS ( 'not_yet_approved' ) ;
#133 = COORDINATED_UNIVERSAL_TIME_OFFSET ( 1, 0, .AHEAD. ) ;
#134 = FACE_OUTER_BOUND ( 'NONE', #66, .T. ) ;
#135 = ORIENTED_EDGE ( 'NONE', *, *, #142, .T. ) ;
#136 = AXIS2_PLACEMENT_3D ( 'NONE', #126, #16, #31 ) ;
#137 = CONICAL_SURFACE ( 'NONE', #171, 1.200000000000003286, 0.7853981633974453924 ) ;
#138 = FACE_OUTER_BOUND ( 'NONE', #157, .T. ) ;
#139 = EDGE_CURVE ( 'NONE', #180, #180, #179, .T. ) ;
#140 = DIRECTION ( 'NONE',  ( 3.491481338843133355E-15, -1.224646799147352961E-16, 1.000000000000000000 ) ) ;
#141 = FACE_OUTER_BOUND ( 'NONE', #247, .T. ) ;
#142 = EDGE_CURVE ( 'NONE', #207, #207, #257, .T. ) ;
#143 = DIRECTION ( 'NONE',  ( -3.491481338843133355E-15, 1.224646799147352961E-16, -1.000000000000000000 ) ) ;
#144 = CYLINDRICAL_SURFACE ( 'NONE', #136, 0.2034999999999997922 ) ;
#145 = DIRECTION ( 'NONE',  ( 4.402179938359236509E-31, 1.000000000000000000, 1.224646799147352961E-16 ) ) ;
#146 =( NAMED_UNIT ( * ) SI_UNIT ( $, .STERADIAN. ) SOLID_ANGLE_UNIT ( ) );
#147 = AXIS2_PLACEMENT_3D ( 'NONE', #123, #253, #283 ) ;
#148 = PLANE ( 'NONE',  #127 ) ;
#149 = APPROVAL_ROLE ( '' ) ;
#150 = APPROVAL ( #84, 'UNSPECIFIED' ) ;
#151 = ORIENTED_EDGE ( 'NONE', *, *, #139, .F. ) ;
#152 = SHAPE_DEFINITION_REPRESENTATION ( #221, #213 ) ;
#153 = ORIENTED_EDGE ( 'NONE', *, *, #59, .F. ) ;
#154 = APPROVAL_DATE_TIME ( #26, #150 ) ;
#155 = AXIS2_PLACEMENT_3D ( 'NONE', #183, #281, #170 ) ;
#156 = ORIENTED_EDGE ( 'NONE', *, *, #250, .T. ) ;
#157 = EDGE_LOOP ( 'NONE', ( #244 ) ) ;
#158 = ORIENTED_EDGE ( 'NONE', *, *, #139, .T. ) ;
#159 = EDGE_LOOP ( 'NONE', ( #45 ) ) ;
#160 = DIRECTION ( 'NONE',  ( 4.275831445896957731E-31, 1.000000000000000000, 1.224646799147353207E-16 ) ) ;
#161 = AXIS2_PLACEMENT_3D ( 'NONE', #115, #163, #200 ) ;
#162 =( GEOMETRIC_REPRESENTATION_CONTEXT ( 3 ) GLOBAL_UNCERTAINTY_ASSIGNED_CONTEXT ( ( #230 ) ) GLOBAL_UNIT_ASSIGNED_CONTEXT ( ( #17, #79, #146 ) ) REPRESENTATION_CONTEXT ( 'NONE', 'WORKASPACE' ) );
#163 = DIRECTION ( 'NONE',  ( -3.491481338843133355E-15, 1.224646799147352961E-16, -1.000000000000000000 ) ) ;
#164 = CC_DESIGN_PERSON_AND_ORGANIZATION_ASSIGNMENT ( #237, #265, ( #19 ) ) ;
#165 = CARTESIAN_POINT ( 'NONE',  ( 1.047444401652940007E-14, -3.673940397442059375E-16, 3.000000000000000000 ) ) ;
#166 = APPROVAL_PERSON_ORGANIZATION ( #106, #53, #149 ) ;
#167 = DIRECTION ( 'NONE',  ( -3.491481338843133355E-15, 1.224646799147352961E-16, -1.000000000000000000 ) ) ;
#168 = FACE_OUTER_BOUND ( 'NONE', #159, .T. ) ;
#169 = CARTESIAN_POINT ( 'NONE',  ( 3.491481338843132862E-16, -1.224646799147352653E-17, 0.09999999999999997780 ) ) ;
#170 = DIRECTION ( 'NONE',  ( -4.275831445896957731E-31, -1.000000000000000000, -1.224646799147352961E-16 ) ) ;
#171 = AXIS2_PLACEMENT_3D ( 'NONE', #20, #143, #2 ) ;
#172 = FACE_BOUND ( 'NONE', #51, .T. ) ;
#173 = VERTEX_POINT ( 'NONE', #80 ) ;
#174 = PERSON_AND_ORGANIZATION_ROLE ( 'creator' ) ;
#175 = PERSON_AND_ORGANIZATION ( #43, #75 ) ;
#176 = CC_DESIGN_PERSON_AND_ORGANIZATION_ASSIGNMENT ( #128, #130, ( #19 ) ) ;
#177 = VERTEX_POINT ( 'NONE', #273 ) ;
#178 = FACE_BOUND ( 'NONE', #29, .T. ) ;
#179 = CIRCLE ( 'NONE', #262, 0.2034999999999998754 ) ;
#180 = VERTEX_POINT ( 'NONE', #204 ) ;
#181 = ORIENTED_EDGE ( 'NONE', *, *, #27, .F. ) ;
#182 = PLANE ( 'NONE',  #193 ) ;
#183 = CARTESIAN_POINT ( 'NONE',  ( 1.047444401652940007E-14, 1.526005578858431549E-33, 3.000000000000000000 ) ) ;
#184 = PERSON_AND_ORGANIZATION_ROLE ( 'design_owner' ) ;
#185 = VERTEX_POINT ( 'NONE', #194 ) ;
#186 = APPLICATION_PROTOCOL_DEFINITION ( 'international standard', 'config_control_design', 1994, #227 ) ;
#187 = CC_DESIGN_SECURITY_CLASSIFICATION ( #249, ( #19 ) ) ;
#188 = ADVANCED_FACE ( 'NONE', ( #74, #141 ), #100, .F. ) ;
#189 = DIRECTION ( 'NONE',  ( 0.0000000000000000000, 1.000000000000000000, 0.0000000000000000000 ) ) ;
#190 = DIRECTION ( 'NONE',  ( 4.732014605374057968E-31, 1.000000000000000000, 1.331943700842147009E-16 ) ) ;
#191 = VERTEX_POINT ( 'NONE', #40 ) ;
#192 = DIRECTION ( 'NONE',  ( -3.491481338843133355E-15, 1.224646799147352961E-16, -1.000000000000000000 ) ) ;
#193 = AXIS2_PLACEMENT_3D ( 'NONE', #70, #248, #119 ) ;
#194 = CARTESIAN_POINT ( 'NONE',  ( 1.866998543791203065E-14, 0.2338844939755803376, 5.347296355333847728 ) ) ;
#195 = SECURITY_CLASSIFICATION_LEVEL ( 'unclassified' ) ;
#196 = AXIS2_PLACEMENT_3D ( 'NONE', #117, #192, #215 ) ;
#197 = APPROVAL_ROLE ( '' ) ;
#198 = EDGE_LOOP ( 'NONE', ( #135 ) ) ;
#199 = EDGE_LOOP ( 'NONE', ( #158 ) ) ;
#200 = DIRECTION ( 'NONE',  ( 0.0000000000000000000, 1.000000000000000000, 0.0000000000000000000 ) ) ;
#201 = CARTESIAN_POINT ( 'NONE',  ( 1.326762908760390423E-13, 1.199999999999998845, 38.00000000000000000 ) ) ;
#202 = ORIENTED_EDGE ( 'NONE', *, *, #25, .F. ) ;
#203 = ORIENTED_EDGE ( 'NONE', *, *, #25, .T. ) ;
#204 = CARTESIAN_POINT ( 'NONE',  ( 1.745740669421566678E-14, 0.2034999999999992648, 5.000000000000000000 ) ) ;
#205 = EDGE_LOOP ( 'NONE', ( #69 ) ) ;
#206 = ADVANCED_FACE ( 'NONE', ( #36, #81 ), #21, .T. ) ;
#207 = VERTEX_POINT ( 'NONE', #275 ) ;
#208 = PLANE ( 'NONE',  #196 ) ;
#209 = DIRECTION ( 'NONE',  ( -3.491481338843133355E-15, 1.224646799147352961E-16, -1.000000000000000000 ) ) ;
#210 = ADVANCED_FACE ( 'NONE', ( #261 ), #148, .F. ) ;
#211 = FACE_BOUND ( 'NONE', #50, .T. ) ;
#212 = CIRCLE ( 'NONE', #23, 1.499999999999996891 ) ;
#213 = ADVANCED_BREP_SHAPE_REPRESENTATION ( '959801', ( #125, #220, #113 ), #162 ) ;
#214 = CONICAL_SURFACE ( 'NONE', #91, 1.499999999999996891, 0.1745329251994260367 ) ;
#215 = DIRECTION ( 'NONE',  ( 4.275831445896957731E-31, 1.000000000000000000, 1.224646799147352961E-16 ) ) ;
#216 = DIRECTION ( 'NONE',  ( 0.0000000000000000000, 0.0000000000000000000, 1.000000000000000000 ) ) ;
#217 = CARTESIAN_POINT ( 'NONE',  ( 1.047444401652940007E-14, -3.673940397442059375E-16, 3.000000000000000000 ) ) ;
#218 = CIRCLE ( 'NONE', #46, 0.2338844939755810037 ) ;
#219 = APPROVAL_DATE_TIME ( #65, #129 ) ;
#220 = MANIFOLD_SOLID_BREP ( 'Corps-Déplacer/Copier1[2]', #97 ) ;
#221 = PRODUCT_DEFINITION_SHAPE ( 'NONE', 'NONE',  #92 ) ;
#222 = PERSON_AND_ORGANIZATION_ROLE ( 'classification_officer' ) ;
#223 = LOCAL_TIME ( 15, 47, 27.00000000000000000, #267 ) ;
#224 = CARTESIAN_POINT ( 'NONE',  ( 3.491481338843133848E-16, 0.2034999999999993758, 0.1000000000000000056 ) ) ;
#225 = PERSON_AND_ORGANIZATION ( #43, #75 ) ;
#226 = CC_DESIGN_DATE_AND_TIME_ASSIGNMENT ( #47, #239, ( #92 ) ) ;
#227 = APPLICATION_CONTEXT ( 'configuration controlled 3d designs of mechanical parts and assemblies' ) ;
#228 = DIRECTION ( 'NONE',  ( 3.491481338843133355E-15, -1.224646799147352961E-16, 1.000000000000000000 ) ) ;
#229 = DIRECTION ( 'NONE',  ( 0.0000000000000000000, 1.000000000000000000, 0.0000000000000000000 ) ) ;
#230 = UNCERTAINTY_MEASURE_WITH_UNIT (LENGTH_MEASURE( 1.000000000000000082E-05 ), #17, 'distance_accuracy_value', 'NONE');
#231 = FACE_OUTER_BOUND ( 'NONE', #93, .T. ) ;
#232 = FACE_OUTER_BOUND ( 'NONE', #268, .T. ) ;
#233 = MECHANICAL_CONTEXT ( 'NONE', #227, 'mechanical' ) ;
#234 = CIRCLE ( 'NONE', #235, 0.2034999999999993758 ) ;
#235 = AXIS2_PLACEMENT_3D ( 'NONE', #169, #99, #190 ) ;
#236 = CARTESIAN_POINT ( 'NONE',  ( 1.047444401652940007E-14, 1.526005578858431549E-33, 3.000000000000000000 ) ) ;
#237 = PERSON_AND_ORGANIZATION ( #43, #75 ) ;
#238 = VERTEX_POINT ( 'NONE', #264 ) ;
#239 = DATE_TIME_ROLE ( 'creation_date' ) ;
#240 = CALENDAR_DATE ( 2021, 26, 11 ) ;
#241 = ORIENTED_EDGE ( 'NONE', *, *, #89, .F. ) ;
#242 = APPROVAL_ROLE ( '' ) ;
#243 = CALENDAR_DATE ( 2021, 26, 11 ) ;
#244 = ORIENTED_EDGE ( 'NONE', *, *, #118, .T. ) ;
#245 = CC_DESIGN_PERSON_AND_ORGANIZATION_ASSIGNMENT ( #175, #174, ( #92 ) ) ;
#246 = EDGE_LOOP ( 'NONE', ( #153 ) ) ;
#247 = EDGE_LOOP ( 'NONE', ( #203 ) ) ;
#248 = DIRECTION ( 'NONE',  ( 3.491481338843133355E-15, -1.224646799147352961E-16, 1.000000000000000000 ) ) ;
#249 = SECURITY_CLASSIFICATION ( '', '', #195 ) ;
#250 = EDGE_CURVE ( 'NONE', #177, #177, #52, .T. ) ;
#251 = DIRECTION ( 'NONE',  ( -4.732014605374057968E-31, -1.000000000000000000, -1.331943700842147009E-16 ) ) ;
#252 = VERTEX_POINT ( 'NONE', #224 ) ;
#253 = DIRECTION ( 'NONE',  ( -3.491481338843133355E-15, 1.224646799147352961E-16, -1.000000000000000000 ) ) ;
#254 = CONICAL_SURFACE ( 'NONE', #108, 0.2034999999999993758, 0.5235987755982925984 ) ;
#255 = PERSON_AND_ORGANIZATION ( #43, #75 ) ;
#256 = CC_DESIGN_APPROVAL ( #150, ( #19 ) ) ;
#257 = CIRCLE ( 'NONE', #24, 0.2034999999999996811 ) ;
#258 = APPLICATION_PROTOCOL_DEFINITION ( 'international standard', 'config_control_design', 1994, #259 ) ;
#259 = APPLICATION_CONTEXT ( 'configuration controlled 3d designs of mechanical parts and assemblies' ) ;
#260 = DIRECTION ( 'NONE',  ( 0.0000000000000000000, 1.000000000000000000, 0.0000000000000000000 ) ) ;
#261 = FACE_OUTER_BOUND ( 'NONE', #48, .T. ) ;
#262 = AXIS2_PLACEMENT_3D ( 'NONE', #35, #209, #260 ) ;
#263 = CARTESIAN_POINT ( 'NONE',  ( 4.374055968776723668E-14, -1.534212307498303273E-15, 12.52779420618648487 ) ) ;
#264 = CARTESIAN_POINT ( 'NONE',  ( 4.374055968776723668E-14, 1.499999999999995559, 12.52779420618648487 ) ) ;
#265 = PERSON_AND_ORGANIZATION_ROLE ( 'creator' ) ;
#266 = DATE_TIME_ROLE ( 'classification_date' ) ;
#267 = COORDINATED_UNIVERSAL_TIME_OFFSET ( 1, 0, .AHEAD. ) ;
#268 = EDGE_LOOP ( 'NONE', ( #14 ) ) ;
#269 = AXIS2_PLACEMENT_3D ( 'NONE', #71, #276, #160 ) ;
#270 = CARTESIAN_POINT ( 'NONE',  ( 3.491481338843132862E-16, -1.224646799147352653E-17, 0.09999999999999997780 ) ) ;
#271 = ORIENTED_EDGE ( 'NONE', *, *, #107, .T. ) ;
#272 = DIRECTION ( 'NONE',  ( 0.0000000000000000000, 1.000000000000000000, 0.0000000000000000000 ) ) ;
#273 = CARTESIAN_POINT ( 'NONE',  ( 1.047444401652940007E-14, 0.2034999999999993203, 3.000000000000000000 ) ) ;
#274 = DIRECTION ( 'NONE',  ( 0.0000000000000000000, 1.000000000000000000, 0.0000000000000000000 ) ) ;
#275 = CARTESIAN_POINT ( 'NONE',  ( 1.047444401652940007E-14, 0.2034999999999993203, 3.000000000000000000 ) ) ;
#276 = DIRECTION ( 'NONE',  ( -3.491481338843133355E-15, 1.224646799147352961E-16, -1.000000000000000000 ) ) ;
#277 = AXIS2_PLACEMENT_3D ( 'NONE', #101, #58, #145 ) ;
#278 = CARTESIAN_POINT ( 'NONE',  ( 1.866998543791203065E-14, -6.548549365651903409E-16, 5.347296355333847728 ) ) ;
#279 = ADVANCED_FACE ( 'NONE', ( #172, #231 ), #214, .T. ) ;
#280 = DESIGN_CONTEXT ( 'detailed design', #259, 'design' ) ;
#281 = DIRECTION ( 'NONE',  ( 3.491481338843133355E-15, -1.224646799147352961E-16, 1.000000000000000000 ) ) ;
#282 = CARTESIAN_POINT ( 'NONE',  ( 1.326762908760390423E-13, -4.653657836759941152E-15, 38.00000000000000000 ) ) ;
#283 = DIRECTION ( 'NONE',  ( 4.275831445896958607E-31, 1.000000000000000000, 1.224646799147352961E-16 ) ) ;
ENDSEC;
END-ISO-10303-21;
