ISO-10303-21;
HEADER;
FILE_DESCRIPTION (( 'STEP AP203' ),
    '1' );
FILE_NAME ('959800.step',
    '2021-11-29T14:49:33',
    ( '' ),
    ( '' ),
    'SwSTEP 2.0',
    'SolidWorks 2019',
    '' );
FILE_SCHEMA (( 'CONFIG_CONTROL_DESIGN' ));
ENDSEC;

DATA;
#1 = UNCERTAINTY_MEASURE_WITH_UNIT (LENGTH_MEASURE( 1.000000000000000082E-05 ), #11, 'distance_accuracy_value', 'NONE');
#2 = MANIFOLD_SOLID_BREP ( 'Corps-Déplacer/Copier1[2]', #103 ) ;
#3 = EDGE_LOOP ( 'NONE', ( #76 ) ) ;
#4 = DIRECTION ( 'NONE',  ( 0.0000000000000000000, -1.000000000000000000, 0.0000000000000000000 ) ) ;
#5 = MANIFOLD_SOLID_BREP ( 'Corps-Déplacer/Copier1[1]', #97 ) ;
#6 = DIRECTION ( 'NONE',  ( -3.491481338843133355E-15, 1.224646799147352961E-16, -1.000000000000000000 ) ) ;
#7 = PLANE ( 'NONE',  #224 ) ;
#8 = PRODUCT_DEFINITION ( 'UNKNOWN', '', #256, #98 ) ;
#9 = CIRCLE ( 'NONE', #164, 0.4853844939755809773 ) ;
#10 = DIRECTION ( 'NONE',  ( -4.275831445896957731E-31, -1.000000000000000000, -1.224646799147352961E-16 ) ) ;
#11 =( LENGTH_UNIT ( ) NAMED_UNIT ( * ) SI_UNIT ( .MILLI., .METRE. ) );
#12 = CARTESIAN_POINT ( 'NONE',  ( 1.326762908760390423E-13, -4.653657836759941152E-15, 38.00000000000000000 ) ) ;
#13 = APPLICATION_CONTEXT ( 'configuration controlled 3d designs of mechanical parts and assemblies' ) ;
#14 = DIRECTION ( 'NONE',  ( 4.275831445896957731E-31, 1.000000000000000000, 1.224646799147353207E-16 ) ) ;
#15 = CC_DESIGN_PERSON_AND_ORGANIZATION_ASSIGNMENT ( #89, #177, ( #256 ) ) ;
#16 = LOCAL_TIME ( 15, 49, 33.00000000000000000, #21 ) ;
#17 = VERTEX_POINT ( 'NONE', #264 ) ;
#18 = EDGE_LOOP ( 'NONE', ( #187 ) ) ;
#19 = APPROVAL_DATE_TIME ( #272, #295 ) ;
#20 = EDGE_CURVE ( 'NONE', #292, #292, #269, .T. ) ;
#21 = COORDINATED_UNIVERSAL_TIME_OFFSET ( 1, 0, .AHEAD. ) ;
#22 = DATE_AND_TIME ( #242, #135 ) ;
#23 = EDGE_LOOP ( 'NONE', ( #199 ) ) ;
#24 = ORIENTED_EDGE ( 'NONE', *, *, #239, .F. ) ;
#25 = LOCAL_TIME ( 15, 49, 33.00000000000000000, #114 ) ;
#26 = FACE_BOUND ( 'NONE', #303, .T. ) ;
#27 = ADVANCED_FACE ( 'NONE', ( #163 ), #249, .F. ) ;
#28 = CIRCLE ( 'NONE', #92, 0.3930299461620758161 ) ;
#29 = FACE_OUTER_BOUND ( 'NONE', #118, .T. ) ;
#30 = CARTESIAN_POINT ( 'NONE',  ( 1.745740669421566678E-14, -6.123233995736765296E-16, 5.000000000000000000 ) ) ;
#31 = CARTESIAN_POINT ( 'NONE',  ( 5.970945229873617497E-14, 1.499999999999995559, 17.10146682855257794 ) ) ;
#32 = DIRECTION ( 'NONE',  ( -3.491481338843133355E-15, 1.224646799147352961E-16, -1.000000000000000000 ) ) ;
#33 = CARTESIAN_POINT ( 'NONE',  ( 1.745740669421566678E-14, 0.5084999999999992859, 5.000000000000000000 ) ) ;
#34 = AXIS2_PLACEMENT_3D ( 'NONE', #30, #64, #143 ) ;
#35 = DIRECTION ( 'NONE',  ( 0.0000000000000000000, 1.000000000000000000, 0.0000000000000000000 ) ) ;
#36 = VERTEX_POINT ( 'NONE', #33 ) ;
#37 = EDGE_CURVE ( 'NONE', #176, #176, #9, .T. ) ;
#38 = FACE_OUTER_BOUND ( 'NONE', #80, .T. ) ;
#39 = VERTEX_POINT ( 'NONE', #62 ) ;
#40 = AXIS2_PLACEMENT_3D ( 'NONE', #282, #220, #14 ) ;
#41 = PERSON_AND_ORGANIZATION ( #93, #293 ) ;
#42 = ORIENTED_EDGE ( 'NONE', *, *, #37, .T. ) ;
#43 = PRODUCT_DEFINITION_SHAPE ( 'NONE', 'NONE',  #8 ) ;
#44 = PERSON_AND_ORGANIZATION_ROLE ( 'classification_officer' ) ;
#45 = AXIS2_PLACEMENT_3D ( 'NONE', #168, #6, #288 ) ;
#46 = CARTESIAN_POINT ( 'NONE',  ( 0.0000000000000000000, 0.0000000000000000000, 0.0000000000000000000 ) ) ;
#47 = ADVANCED_FACE ( 'NONE', ( #230, #166 ), #213, .T. ) ;
#48 = EDGE_LOOP ( 'NONE', ( #115 ) ) ;
#49 = PERSON_AND_ORGANIZATION_ROLE ( 'creator' ) ;
#50 = DIRECTION ( 'NONE',  ( -3.491481338843133355E-15, 1.224646799147352961E-16, -1.000000000000000000 ) ) ;
#51 = ORIENTED_EDGE ( 'NONE', *, *, #153, .F. ) ;
#52 = CONICAL_SURFACE ( 'NONE', #174, 0.4549999999999991829, 0.5235987755982931535 ) ;
#53 = CC_DESIGN_APPROVAL ( #295, ( #8 ) ) ;
#54 = DIRECTION ( 'NONE',  ( 0.0000000000000000000, 1.000000000000000000, 0.0000000000000000000 ) ) ;
#55 = CC_DESIGN_PERSON_AND_ORGANIZATION_ASSIGNMENT ( #67, #44, ( #146 ) ) ;
#56 = EDGE_LOOP ( 'NONE', ( #117 ) ) ;
#57 = FACE_OUTER_BOUND ( 'NONE', #75, .T. ) ;
#58 = DIRECTION ( 'NONE',  ( -3.491481338843133355E-15, 1.224646799147352961E-16, -1.000000000000000000 ) ) ;
#59 = FACE_OUTER_BOUND ( 'NONE', #141, .T. ) ;
#60 = VERTEX_POINT ( 'NONE', #197 ) ;
#61 = CARTESIAN_POINT ( 'NONE',  ( 6.982962677686265724E-16, -2.449293598294705305E-17, 0.1999999999999999556 ) ) ;
#62 = CARTESIAN_POINT ( 'NONE',  ( 1.745740669421566678E-14, 0.5084999999999992859, 5.000000000000000000 ) ) ;
#63 = CIRCLE ( 'NONE', #125, 0.4549999999999997380 ) ;
#64 = DIRECTION ( 'NONE',  ( -3.491481338843133355E-15, 1.224646799147352961E-16, -1.000000000000000000 ) ) ;
#65 = ADVANCED_FACE ( 'NONE', ( #26, #231 ), #274, .T. ) ;
#66 = DIRECTION ( 'NONE',  ( 3.491481338843133355E-15, -1.224646799147352961E-16, 1.000000000000000000 ) ) ;
#67 = PERSON_AND_ORGANIZATION ( #93, #293 ) ;
#68 = AXIS2_PLACEMENT_3D ( 'NONE', #216, #259, #217 ) ;
#69 = ADVANCED_FACE ( 'NONE', ( #99, #190 ), #52, .T. ) ;
#70 = ORIENTED_EDGE ( 'NONE', *, *, #210, .T. ) ;
#71 = PERSON_AND_ORGANIZATION ( #93, #293 ) ;
#72 = APPROVAL_STATUS ( 'not_yet_approved' ) ;
#73 = CC_DESIGN_DATE_AND_TIME_ASSIGNMENT ( #22, #134, ( #8 ) ) ;
#74 = DIRECTION ( 'NONE',  ( -3.491481338843133355E-15, 1.224646799147352961E-16, -1.000000000000000000 ) ) ;
#75 = EDGE_LOOP ( 'NONE', ( #24 ) ) ;
#76 = ORIENTED_EDGE ( 'NONE', *, *, #156, .T. ) ;
#77 = CARTESIAN_POINT ( 'NONE',  ( 0.0000000000000000000, 0.0000000000000000000, 0.0000000000000000000 ) ) ;
#78 = CONICAL_SURFACE ( 'NONE', #212, 1.200000000000003286, 0.7853981633974453924 ) ;
#79 = APPROVAL_PERSON_ORGANIZATION ( #41, #245, #179 ) ;
#80 = EDGE_LOOP ( 'NONE', ( #201 ) ) ;
#81 = DIRECTION ( 'NONE',  ( -3.491481338843133355E-15, 1.224646799147352961E-16, -1.000000000000000000 ) ) ;
#82 = PLANE ( 'NONE',  #188 ) ;
#83 = LOCAL_TIME ( 15, 49, 33.00000000000000000, #178 ) ;
#84 = FACE_OUTER_BOUND ( 'NONE', #109, .T. ) ;
#85 = CARTESIAN_POINT ( 'NONE',  ( 3.840629472727446691E-14, -1.301042606982605321E-15, 11.00000000000000000 ) ) ;
#86 = CARTESIAN_POINT ( 'NONE',  ( 1.745740669421566678E-14, -6.123233995736765296E-16, 5.000000000000000000 ) ) ;
#87 = ADVANCED_FACE ( 'NONE', ( #183, #167 ), #251, .T. ) ;
#88 = CARTESIAN_POINT ( 'NONE',  ( 1.316288464743861212E-13, 1.499999999999998668, 37.69999999999999574 ) ) ;
#89 = PERSON_AND_ORGANIZATION ( #93, #293 ) ;
#90 = EDGE_LOOP ( 'NONE', ( #70 ) ) ;
#91 = APPLICATION_PROTOCOL_DEFINITION ( 'international standard', 'config_control_design', 1994, #13 ) ;
#92 = AXIS2_PLACEMENT_3D ( 'NONE', #123, #32, #191 ) ;
#93 = PERSON ( 'UNSPECIFIED', 'UNSPECIFIED', 'UNSPECIFIED', ('UNSPECIFIED'), ('UNSPECIFIED'), ('UNSPECIFIED') ) ;
#94 = ORIENTED_EDGE ( 'NONE', *, *, #100, .T. ) ;
#95 = ORIENTED_EDGE ( 'NONE', *, *, #153, .T. ) ;
#96 = CARTESIAN_POINT ( 'NONE',  ( 1.316288464743861212E-13, -4.616918432785520292E-15, 37.69999999999999574 ) ) ;
#97 = CLOSED_SHELL ( 'NONE', ( #126, #69, #47, #161, #65, #261, #205, #27 ) ) ;
#98 = DESIGN_CONTEXT ( 'detailed design', #254, 'design' ) ;
#99 = FACE_OUTER_BOUND ( 'NONE', #276, .T. ) ;
#100 = EDGE_CURVE ( 'NONE', #60, #60, #28, .T. ) ;
#101 = FACE_OUTER_BOUND ( 'NONE', #162, .T. ) ;
#102 = FACE_BOUND ( 'NONE', #90, .T. ) ;
#103 = CLOSED_SHELL ( 'NONE', ( #175, #87, #202, #301 ) ) ;
#104 = CARTESIAN_POINT ( 'NONE',  ( 6.982962677686265724E-16, -2.449293598294705305E-17, 0.1999999999999999556 ) ) ;
#105 = DIRECTION ( 'NONE',  ( 3.787472850319053006E-31, 1.000000000000000000, 1.066078832335797343E-16 ) ) ;
#106 = CC_DESIGN_DATE_AND_TIME_ASSIGNMENT ( #155, #240, ( #146 ) ) ;
#107 = CARTESIAN_POINT ( 'NONE',  ( 1.778094382859736416E-14, -6.236715546280332998E-16, 5.092664718204937380 ) ) ;
#108 = CIRCLE ( 'NONE', #45, 1.499999999999997558 ) ;
#109 = EDGE_LOOP ( 'NONE', ( #95 ) ) ;
#110 = PERSON_AND_ORGANIZATION ( #93, #293 ) ;
#111 = EDGE_LOOP ( 'NONE', ( #185 ) ) ;
#112 = DATE_AND_TIME ( #297, #25 ) ;
#113 = ADVANCED_BREP_SHAPE_REPRESENTATION ( '959800', ( #5, #2, #121 ), #198 ) ;
#114 = COORDINATED_UNIVERSAL_TIME_OFFSET ( 1, 0, .AHEAD. ) ;
#115 = ORIENTED_EDGE ( 'NONE', *, *, #210, .F. ) ;
#116 = AXIS2_PLACEMENT_3D ( 'NONE', #107, #81, #255 ) ;
#117 = ORIENTED_EDGE ( 'NONE', *, *, #236, .T. ) ;
#118 = EDGE_LOOP ( 'NONE', ( #246 ) ) ;
#119 = CARTESIAN_POINT ( 'NONE',  ( 5.970945229873617497E-14, -2.094325661231154553E-15, 17.10146682855257794 ) ) ;
#120 = CC_DESIGN_PERSON_AND_ORGANIZATION_ASSIGNMENT ( #71, #49, ( #8 ) ) ;
#121 = AXIS2_PLACEMENT_3D ( 'NONE', #46, #138, #136 ) ;
#122 = DIRECTION ( 'NONE',  ( 3.491481338843133355E-15, -1.224646799147352961E-16, 1.000000000000000000 ) ) ;
#123 = CARTESIAN_POINT ( 'NONE',  ( -2.626897716170572883E-31, 9.213916866763810557E-33, -7.523734086578188311E-17 ) ) ;
#124 = DIRECTION ( 'NONE',  ( -3.491481338843133355E-15, 1.224646799147352961E-16, -1.000000000000000000 ) ) ;
#125 = AXIS2_PLACEMENT_3D ( 'NONE', #219, #281, #35 ) ;
#126 = ADVANCED_FACE ( 'NONE', ( #84 ), #286, .F. ) ;
#127 = CARTESIAN_POINT ( 'NONE',  ( 0.0000000000000000000, 0.0000000000000000000, 0.0000000000000000000 ) ) ;
#128 = CYLINDRICAL_SURFACE ( 'NONE', #40, 1.500000000000000444 ) ;
#129 = CARTESIAN_POINT ( 'NONE',  ( 3.840629472727446691E-14, 0.4549999999999983502, 11.00000000000000000 ) ) ;
#130 = AXIS2_PLACEMENT_3D ( 'NONE', #86, #262, #237 ) ;
#131 = CALENDAR_DATE ( 2021, 29, 11 ) ;
#132 = PRODUCT ( '959800', '959800', '', ( #180 ) ) ;
#133 = PERSON_AND_ORGANIZATION_ROLE ( 'creator' ) ;
#134 = DATE_TIME_ROLE ( 'creation_date' ) ;
#135 = LOCAL_TIME ( 15, 49, 33.00000000000000000, #160 ) ;
#136 = DIRECTION ( 'NONE',  ( 1.000000000000000000, 0.0000000000000000000, 0.0000000000000000000 ) ) ;
#137 = EDGE_LOOP ( 'NONE', ( #42 ) ) ;
#138 = DIRECTION ( 'NONE',  ( 0.0000000000000000000, 0.0000000000000000000, 1.000000000000000000 ) ) ;
#139 = DIRECTION ( 'NONE',  ( 3.491481338843133355E-15, -1.224646799147352961E-16, 1.000000000000000000 ) ) ;
#140 = DIRECTION ( 'NONE',  ( -3.491481338843133355E-15, 1.224646799147352961E-16, -1.000000000000000000 ) ) ;
#141 = EDGE_LOOP ( 'NONE', ( #165 ) ) ;
#142 = DIRECTION ( 'NONE',  ( -3.491481338843133355E-15, 1.224646799147352961E-16, -1.000000000000000000 ) ) ;
#143 = DIRECTION ( 'NONE',  ( 0.0000000000000000000, 1.000000000000000000, 0.0000000000000000000 ) ) ;
#144 = CIRCLE ( 'NONE', #130, 0.5084999999999999520 ) ;
#145 = CIRCLE ( 'NONE', #273, 0.5084999999999992859 ) ;
#146 = SECURITY_CLASSIFICATION ( '', '', #267 ) ;
#147 = FACE_OUTER_BOUND ( 'NONE', #18, .T. ) ;
#148 = DIRECTION ( 'NONE',  ( -3.491481338843133355E-15, 1.224646799147352961E-16, -1.000000000000000000 ) ) ;
#149 = DIRECTION ( 'NONE',  ( -3.787472850319053006E-31, -1.000000000000000000, -1.066078832335797343E-16 ) ) ;
#150 = AXIS2_PLACEMENT_3D ( 'NONE', #12, #124, #173 ) ;
#151 = CARTESIAN_POINT ( 'NONE',  ( -1.313448858085286442E-31, 4.606958433381905278E-33, -3.761867043289094156E-17 ) ) ;
#152 = VERTEX_POINT ( 'NONE', #129 ) ;
#153 = EDGE_CURVE ( 'NONE', #39, #39, #218, .T. ) ;
#154 = AXIS2_PLACEMENT_3D ( 'NONE', #119, #139, #4 ) ;
#155 = DATE_AND_TIME ( #203, #16 ) ;
#156 = EDGE_CURVE ( 'NONE', #152, #152, #63, .T. ) ;
#157 = CALENDAR_DATE ( 2021, 29, 11 ) ;
#158 = CC_DESIGN_APPROVAL ( #245, ( #146 ) ) ;
#159 = ORIENTED_EDGE ( 'NONE', *, *, #20, .T. ) ;
#160 = COORDINATED_UNIVERSAL_TIME_OFFSET ( 1, 0, .AHEAD. ) ;
#161 = ADVANCED_FACE ( 'NONE', ( #147, #257 ), #232, .F. ) ;
#162 = EDGE_LOOP ( 'NONE', ( #159 ) ) ;
#163 = FACE_OUTER_BOUND ( 'NONE', #48, .T. ) ;
#164 = AXIS2_PLACEMENT_3D ( 'NONE', #302, #142, #207 ) ;
#165 = ORIENTED_EDGE ( 'NONE', *, *, #20, .F. ) ;
#166 = FACE_OUTER_BOUND ( 'NONE', #3, .T. ) ;
#167 = FACE_OUTER_BOUND ( 'NONE', #56, .T. ) ;
#168 = CARTESIAN_POINT ( 'NONE',  ( 5.970945229873617497E-14, -2.094325661231154553E-15, 17.10146682855257794 ) ) ;
#169 = AXIS2_PLACEMENT_3D ( 'NONE', #127, #58, #171 ) ;
#170 = DIRECTION ( 'NONE',  ( -3.491481338843133355E-15, 1.224646799147352961E-16, -1.000000000000000000 ) ) ;
#171 = DIRECTION ( 'NONE',  ( 4.275831445896957731E-31, 1.000000000000000000, 1.224646799147352961E-16 ) ) ;
#172 = CARTESIAN_POINT ( 'NONE',  ( 1.326762908760390423E-13, 1.199999999999998845, 38.00000000000000000 ) ) ;
#173 = DIRECTION ( 'NONE',  ( 0.0000000000000000000, 1.000000000000000000, 0.0000000000000000000 ) ) ;
#174 = AXIS2_PLACEMENT_3D ( 'NONE', #252, #74, #299 ) ;
#175 = ADVANCED_FACE ( 'NONE', ( #195 ), #7, .F. ) ;
#176 = VERTEX_POINT ( 'NONE', #238 ) ;
#177 = PERSON_AND_ORGANIZATION_ROLE ( 'design_supplier' ) ;
#178 = COORDINATED_UNIVERSAL_TIME_OFFSET ( 1, 0, .AHEAD. ) ;
#179 = APPROVAL_ROLE ( '' ) ;
#180 = MECHANICAL_CONTEXT ( 'NONE', #13, 'mechanical' ) ;
#181 = PERSON_AND_ORGANIZATION ( #93, #293 ) ;
#182 = AXIS2_PLACEMENT_3D ( 'NONE', #85, #170, #235 ) ;
#183 = FACE_BOUND ( 'NONE', #268, .T. ) ;
#184 = EDGE_LOOP ( 'NONE', ( #279 ) ) ;
#185 = ORIENTED_EDGE ( 'NONE', *, *, #280, .T. ) ;
#186 = AXIS2_PLACEMENT_3D ( 'NONE', #104, #122, #149 ) ;
#187 = ORIENTED_EDGE ( 'NONE', *, *, #156, .F. ) ;
#188 = AXIS2_PLACEMENT_3D ( 'NONE', #265, #66, #196 ) ;
#189 = APPROVAL ( #227, 'UNSPECIFIED' ) ;
#190 = FACE_BOUND ( 'NONE', #111, .T. ) ;
#191 = DIRECTION ( 'NONE',  ( 4.275831445896957731E-31, 1.000000000000000000, 1.224646799147352961E-16 ) ) ;
#192 = CARTESIAN_POINT ( 'NONE',  ( 1.326762908760390423E-13, -4.653657836759941152E-15, 38.00000000000000000 ) ) ;
#193 = AXIS2_PLACEMENT_3D ( 'NONE', #77, #50, #248 ) ;
#194 = APPROVAL_PERSON_ORGANIZATION ( #110, #189, #200 ) ;
#195 = FACE_OUTER_BOUND ( 'NONE', #228, .T. ) ;
#196 = DIRECTION ( 'NONE',  ( -4.275831445896957731E-31, -1.000000000000000000, -1.224646799147352961E-16 ) ) ;
#197 = CARTESIAN_POINT ( 'NONE',  ( -9.463679131915808972E-32, 0.3930299461620758161, -2.710505431213761701E-17 ) ) ;
#198 =( GEOMETRIC_REPRESENTATION_CONTEXT ( 3 ) GLOBAL_UNCERTAINTY_ASSIGNED_CONTEXT ( ( #1 ) ) GLOBAL_UNIT_ASSIGNED_CONTEXT ( ( #11, #289, #291 ) ) REPRESENTATION_CONTEXT ( 'NONE', 'WORKASPACE' ) );
#199 = ORIENTED_EDGE ( 'NONE', *, *, #280, .F. ) ;
#200 = APPROVAL_ROLE ( '' ) ;
#201 = ORIENTED_EDGE ( 'NONE', *, *, #225, .F. ) ;
#202 = ADVANCED_FACE ( 'NONE', ( #260, #29 ), #234, .T. ) ;
#203 = CALENDAR_DATE ( 2021, 29, 11 ) ;
#204 = SHAPE_DEFINITION_REPRESENTATION ( #43, #113 ) ;
#205 = ADVANCED_FACE ( 'NONE', ( #59, #102 ), #78, .T. ) ;
#206 = PERSON_AND_ORGANIZATION ( #93, #293 ) ;
#207 = DIRECTION ( 'NONE',  ( 0.0000000000000000000, 1.000000000000000000, 0.0000000000000000000 ) ) ;
#208 = CARTESIAN_POINT ( 'NONE',  ( 1.326762908760390423E-13, 8.998558695971099120E-33, 38.00000000000000000 ) ) ;
#209 = ORIENTED_EDGE ( 'NONE', *, *, #225, .T. ) ;
#210 = EDGE_CURVE ( 'NONE', #258, #258, #278, .T. ) ;
#211 = ORIENTED_EDGE ( 'NONE', *, *, #37, .F. ) ;
#212 = AXIS2_PLACEMENT_3D ( 'NONE', #192, #148, #215 ) ;
#213 = CYLINDRICAL_SURFACE ( 'NONE', #193, 0.4549999999999994604 ) ;
#214 = LOCAL_TIME ( 15, 49, 33.00000000000000000, #270 ) ;
#215 = DIRECTION ( 'NONE',  ( 0.0000000000000000000, 1.000000000000000000, 0.0000000000000000000 ) ) ;
#216 = CARTESIAN_POINT ( 'NONE',  ( 1.745740669421566678E-14, 3.813139247417761254E-33, 5.000000000000000000 ) ) ;
#217 = DIRECTION ( 'NONE',  ( -4.275831445896957731E-31, -1.000000000000000000, -1.224646799147352961E-16 ) ) ;
#218 = CIRCLE ( 'NONE', #34, 0.5084999999999999520 ) ;
#219 = CARTESIAN_POINT ( 'NONE',  ( 3.840629472727446691E-14, -1.347111479062088207E-15, 11.00000000000000000 ) ) ;
#220 = DIRECTION ( 'NONE',  ( -3.491481338843133355E-15, 1.224646799147352961E-16, -1.000000000000000000 ) ) ;
#221 = APPROVAL_DATE_TIME ( #243, #245 ) ;
#222 = PRODUCT_RELATED_PRODUCT_CATEGORY ( 'detail', '', ( #132 ) ) ;
#223 = APPLICATION_PROTOCOL_DEFINITION ( 'international standard', 'config_control_design', 1994, #254 ) ;
#224 = AXIS2_PLACEMENT_3D ( 'NONE', #151, #233, #10 ) ;
#225 = EDGE_CURVE ( 'NONE', #294, #294, #108, .T. ) ;
#226 = ORIENTED_EDGE ( 'NONE', *, *, #100, .F. ) ;
#227 = APPROVAL_STATUS ( 'not_yet_approved' ) ;
#228 = EDGE_LOOP ( 'NONE', ( #94 ) ) ;
#229 = CC_DESIGN_APPROVAL ( #189, ( #256 ) ) ;
#230 = FACE_OUTER_BOUND ( 'NONE', #23, .T. ) ;
#231 = FACE_OUTER_BOUND ( 'NONE', #253, .T. ) ;
#232 = TOROIDAL_SURFACE ( 'NONE', #182, 2.454999999999999627, 2.000000000000000000 ) ;
#233 = DIRECTION ( 'NONE',  ( 3.491481338843133355E-15, -1.224646799147352961E-16, 1.000000000000000000 ) ) ;
#234 = CYLINDRICAL_SURFACE ( 'NONE', #169, 0.5084999999999996190 ) ;
#235 = DIRECTION ( 'NONE',  ( 4.275831445896957731E-31, 1.000000000000000000, 1.224646799147352961E-16 ) ) ;
#236 = EDGE_CURVE ( 'NONE', #17, #17, #145, .T. ) ;
#237 = DIRECTION ( 'NONE',  ( 0.0000000000000000000, 1.000000000000000000, 0.0000000000000000000 ) ) ;
#238 = CARTESIAN_POINT ( 'NONE',  ( 3.961887347097083078E-14, 0.4853844939755795895, 11.34729635533384773 ) ) ;
#239 = EDGE_CURVE ( 'NONE', #36, #36, #144, .T. ) ;
#240 = DATE_TIME_ROLE ( 'classification_date' ) ;
#241 = CC_DESIGN_SECURITY_CLASSIFICATION ( #146, ( #256 ) ) ;
#242 = CALENDAR_DATE ( 2021, 29, 11 ) ;
#243 = DATE_AND_TIME ( #131, #214 ) ;
#244 = APPROVAL_ROLE ( '' ) ;
#245 = APPROVAL ( #298, 'UNSPECIFIED' ) ;
#246 = ORIENTED_EDGE ( 'NONE', *, *, #239, .T. ) ;
#247 = PERSON_AND_ORGANIZATION_ROLE ( 'design_owner' ) ;
#248 = DIRECTION ( 'NONE',  ( 4.275831445896957731E-31, 1.000000000000000000, 1.224646799147352714E-16 ) ) ;
#249 = PLANE ( 'NONE',  #284 ) ;
#250 = CC_DESIGN_PERSON_AND_ORGANIZATION_ASSIGNMENT ( #206, #133, ( #256 ) ) ;
#251 = CONICAL_SURFACE ( 'NONE', #186, 0.5084999999999992859, 0.5235987755982925984 ) ;
#252 = CARTESIAN_POINT ( 'NONE',  ( 1.778094382859736416E-14, -6.236715546280332998E-16, 5.092664718204937380 ) ) ;
#253 = EDGE_LOOP ( 'NONE', ( #209 ) ) ;
#254 = APPLICATION_CONTEXT ( 'configuration controlled 3d designs of mechanical parts and assemblies' ) ;
#255 = DIRECTION ( 'NONE',  ( 0.0000000000000000000, 1.000000000000000000, 0.0000000000000000000 ) ) ;
#256 = PRODUCT_DEFINITION_FORMATION_WITH_SPECIFIED_SOURCE ( 'ANY', '', #132, .NOT_KNOWN. ) ;
#257 = FACE_OUTER_BOUND ( 'NONE', #137, .T. ) ;
#258 = VERTEX_POINT ( 'NONE', #172 ) ;
#259 = DIRECTION ( 'NONE',  ( 3.491481338843133355E-15, -1.224646799147352961E-16, 1.000000000000000000 ) ) ;
#260 = FACE_OUTER_BOUND ( 'NONE', #184, .T. ) ;
#261 = ADVANCED_FACE ( 'NONE', ( #38, #101 ), #128, .T. ) ;
#262 = DIRECTION ( 'NONE',  ( -3.491481338843133355E-15, 1.224646799147352961E-16, -1.000000000000000000 ) ) ;
#263 = AXIS2_PLACEMENT_3D ( 'NONE', #96, #275, #54 ) ;
#264 = CARTESIAN_POINT ( 'NONE',  ( 6.982962677686267697E-16, 0.5084999999999992859, 0.2000000000000000111 ) ) ;
#265 = CARTESIAN_POINT ( 'NONE',  ( 1.745740669421566678E-14, 3.813139247417761254E-33, 5.000000000000000000 ) ) ;
#266 = CC_DESIGN_PERSON_AND_ORGANIZATION_ASSIGNMENT ( #271, #247, ( #132 ) ) ;
#267 = SECURITY_CLASSIFICATION_LEVEL ( 'unclassified' ) ;
#268 = EDGE_LOOP ( 'NONE', ( #226 ) ) ;
#269 = CIRCLE ( 'NONE', #263, 1.500000000000003331 ) ;
#270 = COORDINATED_UNIVERSAL_TIME_OFFSET ( 1, 0, .AHEAD. ) ;
#271 = PERSON_AND_ORGANIZATION ( #93, #293 ) ;
#272 = DATE_AND_TIME ( #157, #83 ) ;
#273 = AXIS2_PLACEMENT_3D ( 'NONE', #61, #290, #105 ) ;
#274 = CONICAL_SURFACE ( 'NONE', #154, 1.499999999999997558, 0.1745329251994260644 ) ;
#275 = DIRECTION ( 'NONE',  ( -3.491481338843133355E-15, 1.224646799147352961E-16, -1.000000000000000000 ) ) ;
#276 = EDGE_LOOP ( 'NONE', ( #51 ) ) ;
#277 = DIRECTION ( 'NONE',  ( 4.275831445896957731E-31, 1.000000000000000000, 1.224646799147352961E-16 ) ) ;
#278 = CIRCLE ( 'NONE', #150, 1.200000000000003286 ) ;
#279 = ORIENTED_EDGE ( 'NONE', *, *, #236, .F. ) ;
#280 = EDGE_CURVE ( 'NONE', #283, #283, #300, .T. ) ;
#281 = DIRECTION ( 'NONE',  ( -3.491481338843133355E-15, 1.224646799147352961E-16, -1.000000000000000000 ) ) ;
#282 = CARTESIAN_POINT ( 'NONE',  ( 0.0000000000000000000, 0.0000000000000000000, 0.0000000000000000000 ) ) ;
#283 = VERTEX_POINT ( 'NONE', #287 ) ;
#284 = AXIS2_PLACEMENT_3D ( 'NONE', #208, #140, #277 ) ;
#285 = APPROVAL_PERSON_ORGANIZATION ( #181, #295, #244 ) ;
#286 = PLANE ( 'NONE',  #68 ) ;
#287 = CARTESIAN_POINT ( 'NONE',  ( 1.778094382859736416E-14, 0.4549999999999985167, 5.092664718204937380 ) ) ;
#288 = DIRECTION ( 'NONE',  ( 0.0000000000000000000, 1.000000000000000000, 0.0000000000000000000 ) ) ;
#289 =( NAMED_UNIT ( * ) PLANE_ANGLE_UNIT ( ) SI_UNIT ( $, .RADIAN. ) );
#290 = DIRECTION ( 'NONE',  ( -3.491481338843133355E-15, 1.224646799147352961E-16, -1.000000000000000000 ) ) ;
#291 =( NAMED_UNIT ( * ) SI_UNIT ( $, .STERADIAN. ) SOLID_ANGLE_UNIT ( ) );
#292 = VERTEX_POINT ( 'NONE', #88 ) ;
#293 = ORGANIZATION ( 'UNSPECIFIED', 'UNSPECIFIED', '' ) ;
#294 = VERTEX_POINT ( 'NONE', #31 ) ;
#295 = APPROVAL ( #72, 'UNSPECIFIED' ) ;
#296 = APPROVAL_DATE_TIME ( #112, #189 ) ;
#297 = CALENDAR_DATE ( 2021, 29, 11 ) ;
#298 = APPROVAL_STATUS ( 'not_yet_approved' ) ;
#299 = DIRECTION ( 'NONE',  ( 0.0000000000000000000, 1.000000000000000000, 0.0000000000000000000 ) ) ;
#300 = CIRCLE ( 'NONE', #116, 0.4549999999999991829 ) ;
#301 = ADVANCED_FACE ( 'NONE', ( #57 ), #82, .T. ) ;
#302 = CARTESIAN_POINT ( 'NONE',  ( 3.961887347097083078E-14, -1.389643016053602117E-15, 11.34729635533384773 ) ) ;
#303 = EDGE_LOOP ( 'NONE', ( #211 ) ) ;
ENDSEC;
END-ISO-10303-21;
