ISO-10303-21;
HEADER;
FILE_DESCRIPTION (( 'STEP AP203' ),
    '1' );
FILE_NAME ('959770.step',
    '2021-10-13T12:56:47',
    ( '' ),
    ( '' ),
    'SwSTEP 2.0',
    'SolidWorks 2019',
    '' );
FILE_SCHEMA (( 'CONFIG_CONTROL_DESIGN' ));
ENDSEC;

DATA;
#1 = FACE_BOUND ( 'NONE', #108, .T. ) ;
#2 = EDGE_CURVE ( 'NONE', #22, #22, #192, .T. ) ;
#3 = DIRECTION ( 'NONE',  ( 0.0000000000000000000, 1.000000000000000000, 0.0000000000000000000 ) ) ;
#4 = AXIS2_PLACEMENT_3D ( 'NONE', #138, #221, #3 ) ;
#5 = VERTEX_POINT ( 'NONE', #84 ) ;
#6 = MANIFOLD_SOLID_BREP ( 'Corps-Déplacer/Copier1[1]', #23 ) ;
#7 = APPROVAL_ROLE ( '' ) ;
#8 = APPROVAL_ROLE ( '' ) ;
#9 = APPROVAL_STATUS ( 'not_yet_approved' ) ;
#10 = ADVANCED_FACE ( 'NONE', ( #260 ), #67, .T. ) ;
#11 = ORIENTED_EDGE ( 'NONE', *, *, #83, .F. ) ;
#12 = LOCAL_TIME ( 14, 56, 47.00000000000000000, #91 ) ;
#13 = PERSON_AND_ORGANIZATION ( #177, #261 ) ;
#14 = CARTESIAN_POINT ( 'NONE',  ( 3.107418391570389065E-13, -1.089935651241144396E-14, 89.00000000000001421 ) ) ;
#15 = FACE_OUTER_BOUND ( 'NONE', #186, .T. ) ;
#16 = DIRECTION ( 'NONE',  ( 3.491481338843133355E-15, -1.224646799147353207E-16, 1.000000000000000000 ) ) ;
#17 = CYLINDRICAL_SURFACE ( 'NONE', #166, 2.500000000000005773 ) ;
#18 = FACE_OUTER_BOUND ( 'NONE', #190, .T. ) ;
#19 = CONICAL_SURFACE ( 'NONE', #4, 2.300000000000001155, 0.7853981633974340681 ) ;
#20 = VERTEX_POINT ( 'NONE', #100 ) ;
#21 = ADVANCED_FACE ( 'NONE', ( #15, #39 ), #17, .T. ) ;
#22 = VERTEX_POINT ( 'NONE', #178 ) ;
#23 = CLOSED_SHELL ( 'NONE', ( #68, #122, #40, #158, #207, #80, #64 ) ) ;
#24 = FACE_OUTER_BOUND ( 'NONE', #217, .T. ) ;
#25 = CYLINDRICAL_SURFACE ( 'NONE', #120, 2.500000000000005773 ) ;
#26 = CC_DESIGN_PERSON_AND_ORGANIZATION_ASSIGNMENT ( #152, #147, ( #229 ) ) ;
#27 = SHAPE_DEFINITION_REPRESENTATION ( #146, #224 ) ;
#28 = AXIS2_PLACEMENT_3D ( 'NONE', #14, #96, #241 ) ;
#29 = ORIENTED_EDGE ( 'NONE', *, *, #188, .F. ) ;
#30 = EDGE_LOOP ( 'NONE', ( #157 ) ) ;
#31 = PERSON_AND_ORGANIZATION_ROLE ( 'classification_officer' ) ;
#32 = EDGE_LOOP ( 'NONE', ( #219 ) ) ;
#33 = EDGE_LOOP ( 'NONE', ( #88 ) ) ;
#34 = FACE_OUTER_BOUND ( 'NONE', #236, .T. ) ;
#35 = CARTESIAN_POINT ( 'NONE',  ( 1.348898013480261938E-13, -1.671759610951751930E-14, 38.63397459621553054 ) ) ;
#36 = FACE_OUTER_BOUND ( 'NONE', #112, .T. ) ;
#37 = EDGE_CURVE ( 'NONE', #5, #5, #129, .T. ) ;
#38 = DIRECTION ( 'NONE',  ( 1.510825004591027855E-30, 1.000000000000000000, 4.327174794786742882E-16 ) ) ;
#39 = FACE_OUTER_BOUND ( 'NONE', #113, .T. ) ;
#40 = ADVANCED_FACE ( 'NONE', ( #18 ), #137, .F. ) ;
#41 = AXIS2_PLACEMENT_3D ( 'NONE', #81, #162, #145 ) ;
#42 = SECURITY_CLASSIFICATION ( '', '', #51 ) ;
#43 = VERTEX_POINT ( 'NONE', #245 ) ;
#44 = DIRECTION ( 'NONE',  ( 0.0000000000000000000, 1.000000000000000000, 0.0000000000000000000 ) ) ;
#45 = CARTESIAN_POINT ( 'NONE',  ( 1.379135128843037486E-13, -1.709234043940763281E-14, 39.49999999999999289 ) ) ;
#46 = DIRECTION ( 'NONE',  ( -3.491481338843133355E-15, 4.327174794786742882E-16, -1.000000000000000000 ) ) ;
#47 = DATE_TIME_ROLE ( 'classification_date' ) ;
#48 = PERSON_AND_ORGANIZATION ( #177, #261 ) ;
#49 = DATE_AND_TIME ( #238, #77 ) ;
#50 = ORIENTED_EDGE ( 'NONE', *, *, #174, .F. ) ;
#51 = SECURITY_CLASSIFICATION_LEVEL ( 'unclassified' ) ;
#52 = EDGE_LOOP ( 'NONE', ( #135 ) ) ;
#53 = DIRECTION ( 'NONE',  ( -3.491481338843133355E-15, 4.327174794786742882E-16, -1.000000000000000000 ) ) ;
#54 = CIRCLE ( 'NONE', #160, 2.633974596215571840 ) ;
#55 = FACE_BOUND ( 'NONE', #90, .T. ) ;
#56 = ORIENTED_EDGE ( 'NONE', *, *, #83, .T. ) ;
#57 = CARTESIAN_POINT ( 'NONE',  ( 1.134731435124018530E-13, 2.249639673992774917E-32, 32.50000000000000000 ) ) ;
#58 = DIRECTION ( 'NONE',  ( 0.0000000000000000000, -1.000000000000000000, 0.0000000000000000000 ) ) ;
#59 = CARTESIAN_POINT ( 'NONE',  ( 0.0000000000000000000, 0.0000000000000000000, 0.0000000000000000000 ) ) ;
#60 = AXIS2_PLACEMENT_3D ( 'NONE', #194, #98, #79 ) ;
#61 = UNCERTAINTY_MEASURE_WITH_UNIT (LENGTH_MEASURE( 1.000000000000000082E-05 ), #232, 'distance_accuracy_value', 'NONE');
#62 = LOCAL_TIME ( 14, 56, 47.00000000000000000, #148 ) ;
#63 = CARTESIAN_POINT ( 'NONE',  ( 1.326762908760390170E-13, 2.633974596215555408, 37.99999999999999289 ) ) ;
#64 = ADVANCED_FACE ( 'NONE', ( #34 ), #200, .F. ) ;
#65 = CARTESIAN_POINT ( 'NONE',  ( 1.309305502066175071E-13, 2.499999999999995115, 37.50000000000000000 ) ) ;
#66 = DATE_TIME_ROLE ( 'creation_date' ) ;
#67 = CONICAL_SURFACE ( 'NONE', #168, 2.999999999999988010, 1.221730476396026388 ) ;
#68 = ADVANCED_FACE ( 'NONE', ( #175, #196 ), #97, .T. ) ;
#69 = PERSON_AND_ORGANIZATION ( #177, #261 ) ;
#70 = CONICAL_SURFACE ( 'NONE', #223, 3.500000000000011102, 0.5235987755982985936 ) ;
#71 = ADVANCED_FACE ( 'NONE', ( #117 ), #161, .T. ) ;
#72 = LOCAL_TIME ( 14, 56, 47.00000000000000000, #165 ) ;
#73 = CARTESIAN_POINT ( 'NONE',  ( 0.0000000000000000000, 0.0000000000000000000, 0.0000000000000000000 ) ) ;
#74 = APPROVAL ( #253, 'UNSPECIFIED' ) ;
#75 = DIRECTION ( 'NONE',  ( 4.275831445896958607E-31, 1.000000000000000000, 1.224646799147353207E-16 ) ) ;
#76 = DIRECTION ( 'NONE',  ( 3.491481338843133355E-15, -4.327174794786742882E-16, 1.000000000000000000 ) ) ;
#77 = LOCAL_TIME ( 14, 56, 47.00000000000000000, #167 ) ;
#78 = CC_DESIGN_APPROVAL ( #132, ( #42 ) ) ;
#79 = DIRECTION ( 'NONE',  ( -4.275831445896958607E-31, -1.000000000000000000, -1.224646799147353207E-16 ) ) ;
#80 = ADVANCED_FACE ( 'NONE', ( #36, #116 ), #255, .F. ) ;
#81 = CARTESIAN_POINT ( 'NONE',  ( 0.0000000000000000000, 0.0000000000000000000, 0.0000000000000000000 ) ) ;
#82 = VERTEX_POINT ( 'NONE', #65 ) ;
#83 = EDGE_CURVE ( 'NONE', #206, #206, #243, .T. ) ;
#84 = CARTESIAN_POINT ( 'NONE',  ( 3.082978022198486311E-13, 2.999999999999990674, 88.29999999999998295 ) ) ;
#85 = DIRECTION ( 'NONE',  ( -3.491481338843133355E-15, 4.327174794786742882E-16, -1.000000000000000000 ) ) ;
#86 = AXIS2_PLACEMENT_3D ( 'NONE', #123, #227, #182 ) ;
#87 = CC_DESIGN_PERSON_AND_ORGANIZATION_ASSIGNMENT ( #144, #163, ( #179 ) ) ;
#88 = ORIENTED_EDGE ( 'NONE', *, *, #188, .T. ) ;
#89 = DATE_AND_TIME ( #126, #12 ) ;
#90 = EDGE_LOOP ( 'NONE', ( #149 ) ) ;
#91 = COORDINATED_UNIVERSAL_TIME_OFFSET ( 1, 0, .AHEAD. ) ;
#92 = AXIS2_PLACEMENT_3D ( 'NONE', #239, #202, #58 ) ;
#93 = MANIFOLD_SOLID_BREP ( 'Corps-Déplacer/Copier1[2]', #248 ) ;
#94 = CARTESIAN_POINT ( 'NONE',  ( 0.0000000000000000000, 0.0000000000000000000, 0.0000000000000000000 ) ) ;
#95 = AXIS2_PLACEMENT_3D ( 'NONE', #142, #259, #226 ) ;
#96 = DIRECTION ( 'NONE',  ( -3.491481338843133355E-15, 1.224646799147353207E-16, -1.000000000000000000 ) ) ;
#97 = CYLINDRICAL_SURFACE ( 'NONE', #208, 2.999999999999996891 ) ;
#98 = DIRECTION ( 'NONE',  ( 3.491481338843133355E-15, -1.224646799147353207E-16, 1.000000000000000000 ) ) ;
#99 = CC_DESIGN_APPROVAL ( #74, ( #183 ) ) ;
#100 = CARTESIAN_POINT ( 'NONE',  ( 3.176988202087071062E-15, -2.500000000000005773, 0.9099255856655197316 ) ) ;
#101 = VERTEX_POINT ( 'NONE', #63 ) ;
#102 = CIRCLE ( 'NONE', #86, 2.500000000000005773 ) ;
#103 = FACE_OUTER_BOUND ( 'NONE', #133, .T. ) ;
#104 =( NAMED_UNIT ( * ) SI_UNIT ( $, .STERADIAN. ) SOLID_ANGLE_UNIT ( ) );
#105 = APPROVAL_PERSON_ORGANIZATION ( #235, #199, #7 ) ;
#106 = CALENDAR_DATE ( 2021, 13, 10 ) ;
#107 = APPROVAL_STATUS ( 'not_yet_approved' ) ;
#108 = EDGE_LOOP ( 'NONE', ( #50 ) ) ;
#109 = EDGE_LOOP ( 'NONE', ( #56 ) ) ;
#110 = CALENDAR_DATE ( 2021, 13, 10 ) ;
#111 = CIRCLE ( 'NONE', #203, 2.500000000000011546 ) ;
#112 = EDGE_LOOP ( 'NONE', ( #29 ) ) ;
#113 = EDGE_LOOP ( 'NONE', ( #242 ) ) ;
#114 = EDGE_CURVE ( 'NONE', #164, #164, #254, .T. ) ;
#115 = DIRECTION ( 'NONE',  ( 1.510825004591027855E-30, 1.000000000000000000, 4.327174794786743375E-16 ) ) ;
#116 = FACE_OUTER_BOUND ( 'NONE', #52, .T. ) ;
#117 = FACE_OUTER_BOUND ( 'NONE', #128, .T. ) ;
#118 = FACE_OUTER_BOUND ( 'NONE', #32, .T. ) ;
#119 = EDGE_CURVE ( 'NONE', #43, #43, #180, .T. ) ;
#120 = AXIS2_PLACEMENT_3D ( 'NONE', #59, #46, #143 ) ;
#121 = CARTESIAN_POINT ( 'NONE',  ( 1.326762908760390170E-13, -1.644326422018961980E-14, 37.99999999999999289 ) ) ;
#122 = ADVANCED_FACE ( 'NONE', ( #118, #55 ), #19, .T. ) ;
#123 = CARTESIAN_POINT ( 'NONE',  ( 3.176988202087072245E-15, -1.114337455947559942E-16, 0.9099255856655200647 ) ) ;
#124 = CARTESIAN_POINT ( 'NONE',  ( 1.348898013480261938E-13, -3.000000000000013767, 38.63397459621553054 ) ) ;
#125 = DIRECTION ( 'NONE',  ( 0.0000000000000000000, -1.000000000000000000, 0.0000000000000000000 ) ) ;
#126 = CALENDAR_DATE ( 2021, 13, 10 ) ;
#127 = ORIENTED_EDGE ( 'NONE', *, *, #119, .F. ) ;
#128 = EDGE_LOOP ( 'NONE', ( #127 ) ) ;
#129 = CIRCLE ( 'NONE', #136, 3.000000000000001332 ) ;
#130 = COORDINATED_UNIVERSAL_TIME_OFFSET ( 1, 0, .AHEAD. ) ;
#131 = ORIENTED_EDGE ( 'NONE', *, *, #114, .T. ) ;
#132 = APPROVAL ( #107, 'UNSPECIFIED' ) ;
#133 = EDGE_LOOP ( 'NONE', ( #11 ) ) ;
#134 = APPROVAL_ROLE ( '' ) ;
#135 = ORIENTED_EDGE ( 'NONE', *, *, #174, .T. ) ;
#136 = AXIS2_PLACEMENT_3D ( 'NONE', #244, #262, #173 ) ;
#137 = PLANE ( 'NONE',  #198 ) ;
#138 = CARTESIAN_POINT ( 'NONE',  ( 3.107418391570389065E-13, -1.089935651241144396E-14, 89.00000000000001421 ) ) ;
#139 = CARTESIAN_POINT ( 'NONE',  ( 3.107418391570388560E-13, -5.370100499545591677E-13, 89.00000000000000000 ) ) ;
#140 = DIRECTION ( 'NONE',  ( -4.275831445896958607E-31, -1.000000000000000000, -1.224646799147353207E-16 ) ) ;
#141 = CC_DESIGN_PERSON_AND_ORGANIZATION_ASSIGNMENT ( #256, #234, ( #229 ) ) ;
#142 = CARTESIAN_POINT ( 'NONE',  ( 1.134731435124018530E-13, -1.406331808305691437E-14, 32.50000000000000000 ) ) ;
#143 = DIRECTION ( 'NONE',  ( 1.510825004591027855E-30, 1.000000000000000000, 4.327174794786743375E-16 ) ) ;
#144 = PERSON_AND_ORGANIZATION ( #177, #261 ) ;
#145 = DIRECTION ( 'NONE',  ( 1.000000000000000000, 0.0000000000000000000, 0.0000000000000000000 ) ) ;
#146 = PRODUCT_DEFINITION_SHAPE ( 'NONE', 'NONE',  #183 ) ;
#147 = PERSON_AND_ORGANIZATION_ROLE ( 'creator' ) ;
#148 = COORDINATED_UNIVERSAL_TIME_OFFSET ( 1, 0, .AHEAD. ) ;
#149 = ORIENTED_EDGE ( 'NONE', *, *, #2, .T. ) ;
#150 = CC_DESIGN_DATE_AND_TIME_ASSIGNMENT ( #212, #47, ( #42 ) ) ;
#151 = AXIS2_PLACEMENT_3D ( 'NONE', #35, #76, #159 ) ;
#152 = PERSON_AND_ORGANIZATION ( #177, #261 ) ;
#153 = ORIENTED_EDGE ( 'NONE', *, *, #2, .F. ) ;
#154 =( GEOMETRIC_REPRESENTATION_CONTEXT ( 3 ) GLOBAL_UNCERTAINTY_ASSIGNED_CONTEXT ( ( #61 ) ) GLOBAL_UNIT_ASSIGNED_CONTEXT ( ( #232, #209, #104 ) ) REPRESENTATION_CONTEXT ( 'NONE', 'WORKASPACE' ) );
#155 = DIRECTION ( 'NONE',  ( 4.275831445896958607E-31, 1.000000000000000000, 1.224646799147353207E-16 ) ) ;
#156 = ORIENTED_EDGE ( 'NONE', *, *, #114, .F. ) ;
#157 = ORIENTED_EDGE ( 'NONE', *, *, #211, .T. ) ;
#158 = ADVANCED_FACE ( 'NONE', ( #251, #24 ), #25, .T. ) ;
#159 = DIRECTION ( 'NONE',  ( 0.0000000000000000000, -1.000000000000000000, 0.0000000000000000000 ) ) ;
#160 = AXIS2_PLACEMENT_3D ( 'NONE', #121, #230, #44 ) ;
#161 = PLANE ( 'NONE',  #171 ) ;
#162 = DIRECTION ( 'NONE',  ( 0.0000000000000000000, 0.0000000000000000000, 1.000000000000000000 ) ) ;
#163 = PERSON_AND_ORGANIZATION_ROLE ( 'design_owner' ) ;
#164 = VERTEX_POINT ( 'NONE', #252 ) ;
#165 = COORDINATED_UNIVERSAL_TIME_OFFSET ( 1, 0, .AHEAD. ) ;
#166 = AXIS2_PLACEMENT_3D ( 'NONE', #73, #53, #115 ) ;
#167 = COORDINATED_UNIVERSAL_TIME_OFFSET ( 1, 0, .AHEAD. ) ;
#168 = AXIS2_PLACEMENT_3D ( 'NONE', #201, #16, #170 ) ;
#169 = ORIENTED_EDGE ( 'NONE', *, *, #37, .T. ) ;
#170 = DIRECTION ( 'NONE',  ( -5.135813185032649669E-31, -1.000000000000000000, -1.445602896647345080E-16 ) ) ;
#171 = AXIS2_PLACEMENT_3D ( 'NONE', #57, #258, #140 ) ;
#172 = DIRECTION ( 'NONE',  ( -3.491481338843133355E-15, 4.327174794786742882E-16, -1.000000000000000000 ) ) ;
#173 = DIRECTION ( 'NONE',  ( 0.0000000000000000000, 1.000000000000000000, 0.0000000000000000000 ) ) ;
#174 = EDGE_CURVE ( 'NONE', #101, #101, #54, .T. ) ;
#175 = FACE_OUTER_BOUND ( 'NONE', #109, .T. ) ;
#176 = DIRECTION ( 'NONE',  ( -3.491481338843133355E-15, 1.224646799147353207E-16, -1.000000000000000000 ) ) ;
#177 = PERSON ( 'UNSPECIFIED', 'UNSPECIFIED', 'UNSPECIFIED', ('UNSPECIFIED'), ('UNSPECIFIED'), ('UNSPECIFIED') ) ;
#178 = CARTESIAN_POINT ( 'NONE',  ( 3.107418391570389065E-13, 2.299999999999990496, 89.00000000000001421 ) ) ;
#179 = PRODUCT ( '959770', '959770', '', ( #246 ) ) ;
#180 = CIRCLE ( 'NONE', #95, 2.500000000000005773 ) ;
#181 = APPROVAL_PERSON_ORGANIZATION ( #48, #132, #8 ) ;
#182 = DIRECTION ( 'NONE',  ( -4.622231866529355538E-31, -1.000000000000000000, -1.301042606982602363E-16 ) ) ;
#183 = PRODUCT_DEFINITION ( 'UNKNOWN', '', #229, #195 ) ;
#184 = CARTESIAN_POINT ( 'NONE',  ( 1.309305502066175071E-13, -1.622690548045028739E-14, 37.50000000000000000 ) ) ;
#185 = PERSON_AND_ORGANIZATION_ROLE ( 'creator' ) ;
#186 = EDGE_LOOP ( 'NONE', ( #220 ) ) ;
#187 = APPROVAL_PERSON_ORGANIZATION ( #216, #74, #134 ) ;
#188 = EDGE_CURVE ( 'NONE', #82, #82, #111, .T. ) ;
#189 = APPROVAL_DATE_TIME ( #218, #74 ) ;
#190 = EDGE_LOOP ( 'NONE', ( #153 ) ) ;
#191 = APPROVAL_DATE_TIME ( #193, #199 ) ;
#192 = CIRCLE ( 'NONE', #28, 2.300000000000001155 ) ;
#193 = DATE_AND_TIME ( #110, #233 ) ;
#194 = CARTESIAN_POINT ( 'NONE',  ( 1.134731435124018530E-13, 2.249639673992774917E-32, 32.50000000000000000 ) ) ;
#195 = DESIGN_CONTEXT ( 'detailed design', #240, 'design' ) ;
#196 = FACE_OUTER_BOUND ( 'NONE', #213, .T. ) ;
#197 = APPLICATION_CONTEXT ( 'configuration controlled 3d designs of mechanical parts and assemblies' ) ;
#198 = AXIS2_PLACEMENT_3D ( 'NONE', #139, #222, #75 ) ;
#199 = APPROVAL ( #9, 'UNSPECIFIED' ) ;
#200 = PLANE ( 'NONE',  #60 ) ;
#201 = CARTESIAN_POINT ( 'NONE',  ( 3.812385842504463344E-15, -1.337204947137063450E-16, 1.091910702798617239 ) ) ;
#202 = DIRECTION ( 'NONE',  ( -3.491481338843133355E-15, 1.224646799147353207E-16, -1.000000000000000000 ) ) ;
#203 = AXIS2_PLACEMENT_3D ( 'NONE', #184, #85, #205 ) ;
#204 = CC_DESIGN_APPROVAL ( #199, ( #229 ) ) ;
#205 = DIRECTION ( 'NONE',  ( 0.0000000000000000000, 1.000000000000000000, 0.0000000000000000000 ) ) ;
#206 = VERTEX_POINT ( 'NONE', #124 ) ;
#207 = ADVANCED_FACE ( 'NONE', ( #1, #103 ), #70, .T. ) ;
#208 = AXIS2_PLACEMENT_3D ( 'NONE', #94, #176, #155 ) ;
#209 =( NAMED_UNIT ( * ) PLANE_ANGLE_UNIT ( ) SI_UNIT ( $, .RADIAN. ) );
#210 = APPROVAL_DATE_TIME ( #89, #132 ) ;
#211 = EDGE_CURVE ( 'NONE', #20, #20, #102, .T. ) ;
#212 = DATE_AND_TIME ( #215, #62 ) ;
#213 = EDGE_LOOP ( 'NONE', ( #169 ) ) ;
#214 = AXIS2_PLACEMENT_3D ( 'NONE', #225, #172, #38 ) ;
#215 = CALENDAR_DATE ( 2021, 13, 10 ) ;
#216 = PERSON_AND_ORGANIZATION ( #177, #261 ) ;
#217 = EDGE_LOOP ( 'NONE', ( #156 ) ) ;
#218 = DATE_AND_TIME ( #106, #72 ) ;
#219 = ORIENTED_EDGE ( 'NONE', *, *, #37, .F. ) ;
#220 = ORIENTED_EDGE ( 'NONE', *, *, #119, .T. ) ;
#221 = DIRECTION ( 'NONE',  ( -3.491481338843133355E-15, 1.224646799147353207E-16, -1.000000000000000000 ) ) ;
#222 = DIRECTION ( 'NONE',  ( -3.491481338843133355E-15, 1.224646799147353207E-16, -1.000000000000000000 ) ) ;
#223 = AXIS2_PLACEMENT_3D ( 'NONE', #45, #247, #125 ) ;
#224 = ADVANCED_BREP_SHAPE_REPRESENTATION ( '959770', ( #6, #93, #41 ), #154 ) ;
#225 = CARTESIAN_POINT ( 'NONE',  ( 1.309305502066174819E-13, -1.604619215278546562E-14, 37.49999999999999289 ) ) ;
#226 = DIRECTION ( 'NONE',  ( 0.0000000000000000000, -1.000000000000000000, 0.0000000000000000000 ) ) ;
#227 = DIRECTION ( 'NONE',  ( -3.491481338843133355E-15, 1.224646799147353207E-16, -1.000000000000000000 ) ) ;
#228 = APPLICATION_PROTOCOL_DEFINITION ( 'international standard', 'config_control_design', 1994, #240 ) ;
#229 = PRODUCT_DEFINITION_FORMATION_WITH_SPECIFIED_SOURCE ( 'ANY', '', #179, .NOT_KNOWN. ) ;
#230 = DIRECTION ( 'NONE',  ( -3.491481338843133355E-15, 4.327174794786742882E-16, -1.000000000000000000 ) ) ;
#231 = CC_DESIGN_DATE_AND_TIME_ASSIGNMENT ( #49, #66, ( #183 ) ) ;
#232 =( LENGTH_UNIT ( ) NAMED_UNIT ( * ) SI_UNIT ( .MILLI., .METRE. ) );
#233 = LOCAL_TIME ( 14, 56, 47.00000000000000000, #130 ) ;
#234 = PERSON_AND_ORGANIZATION_ROLE ( 'design_supplier' ) ;
#235 = PERSON_AND_ORGANIZATION ( #177, #261 ) ;
#236 = EDGE_LOOP ( 'NONE', ( #131 ) ) ;
#237 = CC_DESIGN_PERSON_AND_ORGANIZATION_ASSIGNMENT ( #13, #31, ( #42 ) ) ;
#238 = CALENDAR_DATE ( 2021, 13, 10 ) ;
#239 = CARTESIAN_POINT ( 'NONE',  ( 1.134731435124018530E-13, -1.406331808305691437E-14, 32.50000000000000000 ) ) ;
#240 = APPLICATION_CONTEXT ( 'configuration controlled 3d designs of mechanical parts and assemblies' ) ;
#241 = DIRECTION ( 'NONE',  ( 0.0000000000000000000, 1.000000000000000000, 0.0000000000000000000 ) ) ;
#242 = ORIENTED_EDGE ( 'NONE', *, *, #211, .F. ) ;
#243 = CIRCLE ( 'NONE', #151, 2.999999999999996891 ) ;
#244 = CARTESIAN_POINT ( 'NONE',  ( 3.082978022198486311E-13, -1.081363123647112810E-14, 88.29999999999998295 ) ) ;
#245 = CARTESIAN_POINT ( 'NONE',  ( 1.134731435124018530E-13, -2.500000000000019540, 32.50000000000000000 ) ) ;
#246 = MECHANICAL_CONTEXT ( 'NONE', #197, 'mechanical' ) ;
#247 = DIRECTION ( 'NONE',  ( 3.491481338843133355E-15, -4.327174794786742882E-16, 1.000000000000000000 ) ) ;
#248 = CLOSED_SHELL ( 'NONE', ( #10, #21, #71 ) ) ;
#249 = CC_DESIGN_SECURITY_CLASSIFICATION ( #42, ( #229 ) ) ;
#250 = CC_DESIGN_PERSON_AND_ORGANIZATION_ASSIGNMENT ( #69, #185, ( #183 ) ) ;
#251 = FACE_OUTER_BOUND ( 'NONE', #33, .T. ) ;
#252 = CARTESIAN_POINT ( 'NONE',  ( 1.134731435124018530E-13, -2.500000000000019540, 32.50000000000000000 ) ) ;
#253 = APPROVAL_STATUS ( 'not_yet_approved' ) ;
#254 = CIRCLE ( 'NONE', #92, 2.500000000000005773 ) ;
#255 = TOROIDAL_SURFACE ( 'NONE', #214, 3.500000000000011546, 1.000000000000000888 ) ;
#256 = PERSON_AND_ORGANIZATION ( #177, #261 ) ;
#257 = PRODUCT_RELATED_PRODUCT_CATEGORY ( 'detail', '', ( #179 ) ) ;
#258 = DIRECTION ( 'NONE',  ( 3.491481338843133355E-15, -1.224646799147353207E-16, 1.000000000000000000 ) ) ;
#259 = DIRECTION ( 'NONE',  ( -3.491481338843133355E-15, 1.224646799147353207E-16, -1.000000000000000000 ) ) ;
#260 = FACE_OUTER_BOUND ( 'NONE', #30, .T. ) ;
#261 = ORGANIZATION ( 'UNSPECIFIED', 'UNSPECIFIED', '' ) ;
#262 = DIRECTION ( 'NONE',  ( -3.491481338843133355E-15, 1.224646799147353207E-16, -1.000000000000000000 ) ) ;
#263 = APPLICATION_PROTOCOL_DEFINITION ( 'international standard', 'config_control_design', 1994, #197 ) ;
ENDSEC;
END-ISO-10303-21;
