ISO-10303-21;
HEADER;
FILE_DESCRIPTION (( 'STEP AP203' ),
    '1' );
FILE_NAME ('959769.step',
    '2021-10-13T12:56:46',
    ( '' ),
    ( '' ),
    'SwSTEP 2.0',
    'SolidWorks 2019',
    '' );
FILE_SCHEMA (( 'CONFIG_CONTROL_DESIGN' ));
ENDSEC;

DATA;
#1 = COORDINATED_UNIVERSAL_TIME_OFFSET ( 1, 0, .AHEAD. ) ;
#2 = EDGE_LOOP ( 'NONE', ( #98 ) ) ;
#3 = CIRCLE ( 'NONE', #182, 2.200000000000005507 ) ;
#4 = LOCAL_TIME ( 14, 56, 46.00000000000000000, #124 ) ;
#5 = PERSON_AND_ORGANIZATION ( #225, #157 ) ;
#6 = EDGE_LOOP ( 'NONE', ( #206 ) ) ;
#7 = ADVANCED_FACE ( 'NONE', ( #9 ), #83, .T. ) ;
#8 = APPROVAL_PERSON_ORGANIZATION ( #27, #85, #126 ) ;
#9 = FACE_OUTER_BOUND ( 'NONE', #208, .T. ) ;
#10 = DIRECTION ( 'NONE',  ( 0.0000000000000000000, -1.000000000000000000, 0.0000000000000000000 ) ) ;
#11 = DIRECTION ( 'NONE',  ( -3.491481338843133355E-15, 1.224646799147353207E-16, -1.000000000000000000 ) ) ;
#12 = UNCERTAINTY_MEASURE_WITH_UNIT (LENGTH_MEASURE( 1.000000000000000082E-05 ), #42, 'distance_accuracy_value', 'NONE');
#13 = FACE_OUTER_BOUND ( 'NONE', #110, .T. ) ;
#14 = EDGE_CURVE ( 'NONE', #199, #199, #72, .T. ) ;
#15 = CARTESIAN_POINT ( 'NONE',  ( 1.169646248512449737E-13, 2.333974596215558694, 33.50000000000000000 ) ) ;
#16 = CC_DESIGN_DATE_AND_TIME_ASSIGNMENT ( #205, #142, ( #39 ) ) ;
#17 = CARTESIAN_POINT ( 'NONE',  ( 1.209923622449985774E-13, -3.000000000000009770, 34.65358983848619800 ) ) ;
#18 = DIRECTION ( 'NONE',  ( 4.275831445896959482E-31, 1.000000000000000000, 1.224646799147353454E-16 ) ) ;
#19 = APPLICATION_PROTOCOL_DEFINITION ( 'international standard', 'config_control_design', 1994, #195 ) ;
#20 = CARTESIAN_POINT ( 'NONE',  ( 2.758270257686074972E-13, 2.299999999999987832, 78.99999999999998579 ) ) ;
#21 = AXIS2_PLACEMENT_3D ( 'NONE', #34, #212, #105 ) ;
#22 = APPROVAL_STATUS ( 'not_yet_approved' ) ;
#23 = ORIENTED_EDGE ( 'NONE', *, *, #197, .F. ) ;
#24 = CC_DESIGN_PERSON_AND_ORGANIZATION_ASSIGNMENT ( #5, #263, ( #135 ) ) ;
#25 = ORIENTED_EDGE ( 'NONE', *, *, #149, .F. ) ;
#26 = PRODUCT ( '959769', '959769', '', ( #74 ) ) ;
#27 = PERSON_AND_ORGANIZATION ( #225, #157 ) ;
#28 = CALENDAR_DATE ( 2021, 13, 10 ) ;
#29 = EDGE_LOOP ( 'NONE', ( #248 ) ) ;
#30 = FACE_OUTER_BOUND ( 'NONE', #144, .T. ) ;
#31 = LOCAL_TIME ( 14, 56, 46.00000000000000000, #81 ) ;
#32 = DIRECTION ( 'NONE',  ( -5.135813185032649669E-31, -1.000000000000000000, -1.445602896647345080E-16 ) ) ;
#33 = DIRECTION ( 'NONE',  ( 4.275831445896958607E-31, 1.000000000000000000, 1.224646799147353207E-16 ) ) ;
#34 = CARTESIAN_POINT ( 'NONE',  ( 9.985636629091361396E-14, 2.249639673992774643E-32, 28.60000000000000142 ) ) ;
#35 = ORIENTED_EDGE ( 'NONE', *, *, #102, .T. ) ;
#36 = AXIS2_PLACEMENT_3D ( 'NONE', #230, #112, #48 ) ;
#37 = AXIS2_PLACEMENT_3D ( 'NONE', #73, #239, #222 ) ;
#38 = DIRECTION ( 'NONE',  ( 0.0000000000000000000, -1.000000000000000000, 0.0000000000000000000 ) ) ;
#39 = PRODUCT_DEFINITION ( 'UNKNOWN', '', #162, #231 ) ;
#40 = CARTESIAN_POINT ( 'NONE',  ( 2.733829888314173228E-13, 2.999999999999988010, 78.29999999999999716 ) ) ;
#41 = FACE_OUTER_BOUND ( 'NONE', #227, .T. ) ;
#42 =( LENGTH_UNIT ( ) NAMED_UNIT ( * ) SI_UNIT ( .MILLI., .METRE. ) );
#43 = COORDINATED_UNIVERSAL_TIME_OFFSET ( 1, 0, .AHEAD. ) ;
#44 = AXIS2_PLACEMENT_3D ( 'NONE', #86, #133, #108 ) ;
#45 = APPROVAL_STATUS ( 'not_yet_approved' ) ;
#46 = EDGE_LOOP ( 'NONE', ( #125 ) ) ;
#47 = LOCAL_TIME ( 14, 56, 46.00000000000000000, #43 ) ;
#48 = DIRECTION ( 'NONE',  ( -3.501690807976783821E-31, -1.000000000000000000, -9.856383386231834175E-17 ) ) ;
#49 = CYLINDRICAL_SURFACE ( 'NONE', #118, 2.200000000000005507 ) ;
#50 = PRODUCT_RELATED_PRODUCT_CATEGORY ( 'detail', '', ( #26 ) ) ;
#51 = FACE_OUTER_BOUND ( 'NONE', #196, .T. ) ;
#52 = CARTESIAN_POINT ( 'NONE',  ( 9.985636629091361396E-14, -1.237571991309008559E-14, 28.60000000000000142 ) ) ;
#53 = VERTEX_POINT ( 'NONE', #158 ) ;
#54 = CIRCLE ( 'NONE', #204, 2.200000000000010392 ) ;
#55 = CYLINDRICAL_SURFACE ( 'NONE', #261, 2.999999999999994227 ) ;
#56 = FACE_BOUND ( 'NONE', #246, .T. ) ;
#57 =( GEOMETRIC_REPRESENTATION_CONTEXT ( 3 ) GLOBAL_UNCERTAINTY_ASSIGNED_CONTEXT ( ( #12 ) ) GLOBAL_UNIT_ASSIGNED_CONTEXT ( ( #42, #89, #71 ) ) REPRESENTATION_CONTEXT ( 'NONE', 'WORKASPACE' ) );
#58 = ADVANCED_FACE ( 'NONE', ( #30, #88 ), #49, .T. ) ;
#59 = PERSON_AND_ORGANIZATION ( #225, #157 ) ;
#60 = APPROVAL_ROLE ( '' ) ;
#61 = EDGE_LOOP ( 'NONE', ( #171 ) ) ;
#62 = APPROVAL ( #22, 'UNSPECIFIED' ) ;
#63 = CONICAL_SURFACE ( 'NONE', #218, 2.999999999999988010, 1.221730476396026388 ) ;
#64 = DIRECTION ( 'NONE',  ( -3.491481338843133355E-15, 4.327174794786742882E-16, -1.000000000000000000 ) ) ;
#65 = DIRECTION ( 'NONE',  ( 3.491481338843133355E-15, -1.224646799147353207E-16, 1.000000000000000000 ) ) ;
#66 = EDGE_CURVE ( 'NONE', #180, #180, #78, .T. ) ;
#67 = CIRCLE ( 'NONE', #141, 2.999999999999997335 ) ;
#68 = DIRECTION ( 'NONE',  ( 0.0000000000000000000, 1.000000000000000000, 0.0000000000000000000 ) ) ;
#69 = FACE_OUTER_BOUND ( 'NONE', #165, .T. ) ;
#70 = CARTESIAN_POINT ( 'NONE',  ( 1.169646248512449737E-13, -1.449603556253559023E-14, 33.50000000000000000 ) ) ;
#71 =( NAMED_UNIT ( * ) SI_UNIT ( $, .STERADIAN. ) SOLID_ANGLE_UNIT ( ) );
#72 = CIRCLE ( 'NONE', #122, 2.200000000000005507 ) ;
#73 = CARTESIAN_POINT ( 'NONE',  ( 0.0000000000000000000, 0.0000000000000000000, 0.0000000000000000000 ) ) ;
#74 = MECHANICAL_CONTEXT ( 'NONE', #195, 'mechanical' ) ;
#75 = DIRECTION ( 'NONE',  ( -3.491481338843133355E-15, 4.327174794786742882E-16, -1.000000000000000000 ) ) ;
#76 = DATE_AND_TIME ( #189, #4 ) ;
#77 = CALENDAR_DATE ( 2021, 13, 10 ) ;
#78 = CIRCLE ( 'NONE', #36, 2.200000000000005507 ) ;
#79 = MANIFOLD_SOLID_BREP ( 'Corps-Déplacer/Copier1[2]', #167 ) ;
#80 = DATE_AND_TIME ( #185, #241 ) ;
#81 = COORDINATED_UNIVERSAL_TIME_OFFSET ( 1, 0, .AHEAD. ) ;
#82 = APPROVAL_PERSON_ORGANIZATION ( #97, #62, #60 ) ;
#83 = PLANE ( 'NONE',  #44 ) ;
#84 = DIRECTION ( 'NONE',  ( 1.510825004591027855E-30, 1.000000000000000000, 4.327174794786742882E-16 ) ) ;
#85 = APPROVAL ( #170, 'UNSPECIFIED' ) ;
#86 = CARTESIAN_POINT ( 'NONE',  ( 9.985636629091361396E-14, 2.249639673992774643E-32, 28.60000000000000142 ) ) ;
#87 = CARTESIAN_POINT ( 'NONE',  ( 2.758270257686074972E-13, 4.766718420944971420E-13, 78.99999999999998579 ) ) ;
#88 = FACE_OUTER_BOUND ( 'NONE', #247, .T. ) ;
#89 =( NAMED_UNIT ( * ) PLANE_ANGLE_UNIT ( ) SI_UNIT ( $, .RADIAN. ) );
#90 = VERTEX_POINT ( 'NONE', #15 ) ;
#91 = DIRECTION ( 'NONE',  ( 1.510825004591027679E-30, 1.000000000000000000, 4.327174794786742389E-16 ) ) ;
#92 = FACE_OUTER_BOUND ( 'NONE', #61, .T. ) ;
#93 = AXIS2_PLACEMENT_3D ( 'NONE', #193, #256, #129 ) ;
#94 = ADVANCED_FACE ( 'NONE', ( #69, #155 ), #240, .F. ) ;
#95 = APPROVAL_DATE_TIME ( #123, #62 ) ;
#96 = ORIENTED_EDGE ( 'NONE', *, *, #102, .F. ) ;
#97 = PERSON_AND_ORGANIZATION ( #225, #157 ) ;
#98 = ORIENTED_EDGE ( 'NONE', *, *, #121, .T. ) ;
#99 = AXIS2_PLACEMENT_3D ( 'NONE', #221, #257, #116 ) ;
#100 = AXIS2_PLACEMENT_3D ( 'NONE', #119, #137, #38 ) ;
#101 = PERSON_AND_ORGANIZATION_ROLE ( 'design_supplier' ) ;
#102 = EDGE_CURVE ( 'NONE', #53, #53, #3, .T. ) ;
#103 = DATE_TIME_ROLE ( 'classification_date' ) ;
#104 = ORIENTED_EDGE ( 'NONE', *, *, #66, .F. ) ;
#105 = DIRECTION ( 'NONE',  ( -4.275831445896958607E-31, -1.000000000000000000, -1.224646799147353207E-16 ) ) ;
#106 = AXIS2_PLACEMENT_3D ( 'NONE', #109, #179, #84 ) ;
#107 = ADVANCED_FACE ( 'NONE', ( #236 ), #233, .F. ) ;
#108 = DIRECTION ( 'NONE',  ( -4.275831445896958607E-31, -1.000000000000000000, -1.224646799147353207E-16 ) ) ;
#109 = CARTESIAN_POINT ( 'NONE',  ( 1.152188841818234133E-13, -1.431146867680865853E-14, 33.00000000000000000 ) ) ;
#110 = EDGE_LOOP ( 'NONE', ( #96 ) ) ;
#111 = ADVANCED_FACE ( 'NONE', ( #213 ), #63, .T. ) ;
#112 = DIRECTION ( 'NONE',  ( -3.491481338843133355E-15, 1.224646799147353207E-16, -1.000000000000000000 ) ) ;
#113 = CARTESIAN_POINT ( 'NONE',  ( 1.152188841818234133E-13, -1.427967682279625151E-14, 33.00000000000000000 ) ) ;
#114 = VERTEX_POINT ( 'NONE', #17 ) ;
#115 = CC_DESIGN_PERSON_AND_ORGANIZATION_ASSIGNMENT ( #59, #101, ( #162 ) ) ;
#116 = DIRECTION ( 'NONE',  ( 0.0000000000000000000, -1.000000000000000000, 0.0000000000000000000 ) ) ;
#117 = APPLICATION_CONTEXT ( 'configuration controlled 3d designs of mechanical parts and assemblies' ) ;
#118 = AXIS2_PLACEMENT_3D ( 'NONE', #255, #64, #175 ) ;
#119 = CARTESIAN_POINT ( 'NONE',  ( 1.209923622449985774E-13, -1.499521404979754459E-14, 34.65358983848619800 ) ) ;
#120 = PERSON_AND_ORGANIZATION_ROLE ( 'design_owner' ) ;
#121 = EDGE_CURVE ( 'NONE', #136, #136, #217, .T. ) ;
#122 = AXIS2_PLACEMENT_3D ( 'NONE', #52, #178, #10 ) ;
#123 = DATE_AND_TIME ( #145, #210 ) ;
#124 = COORDINATED_UNIVERSAL_TIME_OFFSET ( 1, 0, .AHEAD. ) ;
#125 = ORIENTED_EDGE ( 'NONE', *, *, #197, .T. ) ;
#126 = APPROVAL_ROLE ( '' ) ;
#127 = CC_DESIGN_APPROVAL ( #85, ( #135 ) ) ;
#128 = DATE_AND_TIME ( #77, #47 ) ;
#129 = DIRECTION ( 'NONE',  ( 0.0000000000000000000, 1.000000000000000000, 0.0000000000000000000 ) ) ;
#130 = ADVANCED_FACE ( 'NONE', ( #253, #151 ), #143, .T. ) ;
#131 = DIRECTION ( 'NONE',  ( 0.0000000000000000000, -1.000000000000000000, 0.0000000000000000000 ) ) ;
#132 = CARTESIAN_POINT ( 'NONE',  ( 9.985636629091361396E-14, -1.237571991309008559E-14, 28.60000000000000142 ) ) ;
#133 = DIRECTION ( 'NONE',  ( 3.491481338843133355E-15, -1.224646799147353207E-16, 1.000000000000000000 ) ) ;
#134 = AXIS2_PLACEMENT_3D ( 'NONE', #70, #156, #237 ) ;
#135 = SECURITY_CLASSIFICATION ( '', '', #207 ) ;
#136 = VERTEX_POINT ( 'NONE', #20 ) ;
#137 = DIRECTION ( 'NONE',  ( 3.491481338843133355E-15, -4.327174794786742882E-16, 1.000000000000000000 ) ) ;
#138 = CC_DESIGN_PERSON_AND_ORGANIZATION_ASSIGNMENT ( #188, #226, ( #39 ) ) ;
#139 = DIRECTION ( 'NONE',  ( -3.491481338843133355E-15, 4.327174794786742882E-16, -1.000000000000000000 ) ) ;
#140 = CYLINDRICAL_SURFACE ( 'NONE', #152, 2.200000000000005507 ) ;
#141 = AXIS2_PLACEMENT_3D ( 'NONE', #154, #191, #235 ) ;
#142 = DATE_TIME_ROLE ( 'creation_date' ) ;
#143 = CONICAL_SURFACE ( 'NONE', #234, 2.299999999999997158, 0.7853981633974538301 ) ;
#144 = EDGE_LOOP ( 'NONE', ( #168 ) ) ;
#145 = CALENDAR_DATE ( 2021, 13, 10 ) ;
#146 = ORIENTED_EDGE ( 'NONE', *, *, #159, .F. ) ;
#147 = CC_DESIGN_DATE_AND_TIME_ASSIGNMENT ( #128, #103, ( #135 ) ) ;
#148 = CLOSED_SHELL ( 'NONE', ( #244, #130, #107, #194, #224, #94, #160 ) ) ;
#149 = EDGE_CURVE ( 'NONE', #90, #90, #258, .T. ) ;
#150 = DIRECTION ( 'NONE',  ( -3.491481338843133355E-15, 1.224646799147353207E-16, -1.000000000000000000 ) ) ;
#151 = FACE_BOUND ( 'NONE', #2, .T. ) ;
#152 = AXIS2_PLACEMENT_3D ( 'NONE', #220, #139, #91 ) ;
#153 = CC_DESIGN_SECURITY_CLASSIFICATION ( #135, ( #162 ) ) ;
#154 = CARTESIAN_POINT ( 'NONE',  ( 2.733829888314173228E-13, -9.588984437323775038E-15, 78.29999999999999716 ) ) ;
#155 = FACE_OUTER_BOUND ( 'NONE', #6, .T. ) ;
#156 = DIRECTION ( 'NONE',  ( -3.491481338843133355E-15, 4.327174794786742882E-16, -1.000000000000000000 ) ) ;
#157 = ORGANIZATION ( 'UNSPECIFIED', 'UNSPECIFIED', '' ) ;
#158 = CARTESIAN_POINT ( 'NONE',  ( 9.985636629091361396E-14, -2.200000000000017941, 28.60000000000000142 ) ) ;
#159 = EDGE_CURVE ( 'NONE', #201, #201, #67, .T. ) ;
#160 = ADVANCED_FACE ( 'NONE', ( #51 ), #215, .F. ) ;
#161 = CARTESIAN_POINT ( 'NONE',  ( 2.795749617836623308E-15, -2.200000000000005507, 0.8007345153856575415 ) ) ;
#162 = PRODUCT_DEFINITION_FORMATION_WITH_SPECIFIED_SOURCE ( 'ANY', '', #26, .NOT_KNOWN. ) ;
#163 = CARTESIAN_POINT ( 'NONE',  ( 9.985636629091361396E-14, -2.200000000000017941, 28.60000000000000142 ) ) ;
#164 = SHAPE_DEFINITION_REPRESENTATION ( #172, #186 ) ;
#165 = EDGE_LOOP ( 'NONE', ( #23 ) ) ;
#166 = APPROVAL_DATE_TIME ( #76, #85 ) ;
#167 = CLOSED_SHELL ( 'NONE', ( #111, #58, #7 ) ) ;
#168 = ORIENTED_EDGE ( 'NONE', *, *, #14, .T. ) ;
#169 = CC_DESIGN_PERSON_AND_ORGANIZATION_ASSIGNMENT ( #243, #209, ( #162 ) ) ;
#170 = APPROVAL_STATUS ( 'not_yet_approved' ) ;
#171 = ORIENTED_EDGE ( 'NONE', *, *, #260, .F. ) ;
#172 = PRODUCT_DEFINITION_SHAPE ( 'NONE', 'NONE',  #39 ) ;
#173 = ORIENTED_EDGE ( 'NONE', *, *, #159, .T. ) ;
#174 = FACE_OUTER_BOUND ( 'NONE', #46, .T. ) ;
#175 = DIRECTION ( 'NONE',  ( 1.510825004591027679E-30, 1.000000000000000000, 4.327174794786742389E-16 ) ) ;
#176 = ORIENTED_EDGE ( 'NONE', *, *, #14, .F. ) ;
#177 = CC_DESIGN_PERSON_AND_ORGANIZATION_ASSIGNMENT ( #223, #120, ( #26 ) ) ;
#178 = DIRECTION ( 'NONE',  ( -3.491481338843133355E-15, 1.224646799147353207E-16, -1.000000000000000000 ) ) ;
#179 = DIRECTION ( 'NONE',  ( -3.491481338843133355E-15, 4.327174794786742882E-16, -1.000000000000000000 ) ) ;
#180 = VERTEX_POINT ( 'NONE', #161 ) ;
#181 = CARTESIAN_POINT ( 'NONE',  ( 1.152188841818234133E-13, 2.199999999999996181, 33.00000000000000000 ) ) ;
#182 = AXIS2_PLACEMENT_3D ( 'NONE', #132, #150, #131 ) ;
#183 = COORDINATED_UNIVERSAL_TIME_OFFSET ( 1, 0, .AHEAD. ) ;
#184 = EDGE_LOOP ( 'NONE', ( #190 ) ) ;
#185 = CALENDAR_DATE ( 2021, 13, 10 ) ;
#186 = ADVANCED_BREP_SHAPE_REPRESENTATION ( '959769', ( #259, #79, #37 ), #57 ) ;
#187 = CONICAL_SURFACE ( 'NONE', #99, 3.500000000000008438, 0.5235987755983003700 ) ;
#188 = PERSON_AND_ORGANIZATION ( #225, #157 ) ;
#189 = CALENDAR_DATE ( 2021, 13, 10 ) ;
#190 = ORIENTED_EDGE ( 'NONE', *, *, #121, .F. ) ;
#191 = DIRECTION ( 'NONE',  ( -3.491481338843133355E-15, 1.224646799147353207E-16, -1.000000000000000000 ) ) ;
#192 = CARTESIAN_POINT ( 'NONE',  ( 3.812385842504463344E-15, -1.337204947137063450E-16, 1.091910702798617239 ) ) ;
#193 = CARTESIAN_POINT ( 'NONE',  ( 2.758270257686074972E-13, -9.674709713264089326E-15, 78.99999999999998579 ) ) ;
#194 = ADVANCED_FACE ( 'NONE', ( #174, #13 ), #140, .T. ) ;
#195 = APPLICATION_CONTEXT ( 'configuration controlled 3d designs of mechanical parts and assemblies' ) ;
#196 = EDGE_LOOP ( 'NONE', ( #35 ) ) ;
#197 = EDGE_CURVE ( 'NONE', #202, #202, #54, .T. ) ;
#198 = CARTESIAN_POINT ( 'NONE',  ( 0.0000000000000000000, 0.0000000000000000000, 0.0000000000000000000 ) ) ;
#199 = VERTEX_POINT ( 'NONE', #163 ) ;
#200 = CC_DESIGN_APPROVAL ( #62, ( #39 ) ) ;
#201 = VERTEX_POINT ( 'NONE', #40 ) ;
#202 = VERTEX_POINT ( 'NONE', #181 ) ;
#203 = APPLICATION_PROTOCOL_DEFINITION ( 'international standard', 'config_control_design', 1994, #117 ) ;
#204 = AXIS2_PLACEMENT_3D ( 'NONE', #113, #75, #238 ) ;
#205 = DATE_AND_TIME ( #28, #31 ) ;
#206 = ORIENTED_EDGE ( 'NONE', *, *, #149, .T. ) ;
#207 = SECURITY_CLASSIFICATION_LEVEL ( 'unclassified' ) ;
#208 = EDGE_LOOP ( 'NONE', ( #176 ) ) ;
#209 = PERSON_AND_ORGANIZATION_ROLE ( 'creator' ) ;
#210 = LOCAL_TIME ( 14, 56, 46.00000000000000000, #1 ) ;
#211 = APPROVAL_ROLE ( '' ) ;
#212 = DIRECTION ( 'NONE',  ( 3.491481338843133355E-15, -1.224646799147353207E-16, 1.000000000000000000 ) ) ;
#213 = FACE_OUTER_BOUND ( 'NONE', #29, .T. ) ;
#214 = CARTESIAN_POINT ( 'NONE',  ( 2.758270257686074972E-13, -9.674709713264089326E-15, 78.99999999999998579 ) ) ;
#215 = PLANE ( 'NONE',  #21 ) ;
#216 = DIRECTION ( 'NONE',  ( -3.491481338843133355E-15, 1.224646799147353207E-16, -1.000000000000000000 ) ) ;
#217 = CIRCLE ( 'NONE', #93, 2.299999999999997158 ) ;
#218 = AXIS2_PLACEMENT_3D ( 'NONE', #192, #65, #32 ) ;
#219 = APPROVAL_PERSON_ORGANIZATION ( #229, #232, #211 ) ;
#220 = CARTESIAN_POINT ( 'NONE',  ( 0.0000000000000000000, 0.0000000000000000000, 0.0000000000000000000 ) ) ;
#221 = CARTESIAN_POINT ( 'NONE',  ( 1.240160737812761069E-13, -1.536995837968765810E-14, 35.51961524227065325 ) ) ;
#222 = DIRECTION ( 'NONE',  ( 1.000000000000000000, 0.0000000000000000000, 0.0000000000000000000 ) ) ;
#223 = PERSON_AND_ORGANIZATION ( #225, #157 ) ;
#224 = ADVANCED_FACE ( 'NONE', ( #56, #92 ), #187, .T. ) ;
#225 = PERSON ( 'UNSPECIFIED', 'UNSPECIFIED', 'UNSPECIFIED', ('UNSPECIFIED'), ('UNSPECIFIED'), ('UNSPECIFIED') ) ;
#226 = PERSON_AND_ORGANIZATION_ROLE ( 'creator' ) ;
#227 = EDGE_LOOP ( 'NONE', ( #228 ) ) ;
#228 = ORIENTED_EDGE ( 'NONE', *, *, #260, .T. ) ;
#229 = PERSON_AND_ORGANIZATION ( #225, #157 ) ;
#230 = CARTESIAN_POINT ( 'NONE',  ( 2.795749617836624097E-15, -9.806169612338528577E-17, 0.8007345153856577635 ) ) ;
#231 = DESIGN_CONTEXT ( 'detailed design', #117, 'design' ) ;
#232 = APPROVAL ( #45, 'UNSPECIFIED' ) ;
#233 = PLANE ( 'NONE',  #249 ) ;
#234 = AXIS2_PLACEMENT_3D ( 'NONE', #214, #11, #68 ) ;
#235 = DIRECTION ( 'NONE',  ( 0.0000000000000000000, 1.000000000000000000, 0.0000000000000000000 ) ) ;
#236 = FACE_OUTER_BOUND ( 'NONE', #184, .T. ) ;
#237 = DIRECTION ( 'NONE',  ( 0.0000000000000000000, 1.000000000000000000, 0.0000000000000000000 ) ) ;
#238 = DIRECTION ( 'NONE',  ( 0.0000000000000000000, 1.000000000000000000, 0.0000000000000000000 ) ) ;
#239 = DIRECTION ( 'NONE',  ( 0.0000000000000000000, 0.0000000000000000000, 1.000000000000000000 ) ) ;
#240 = TOROIDAL_SURFACE ( 'NONE', #106, 3.200000000000010392, 0.9999999999999995559 ) ;
#241 = LOCAL_TIME ( 14, 56, 46.00000000000000000, #183 ) ;
#242 = FACE_OUTER_BOUND ( 'NONE', #252, .T. ) ;
#243 = PERSON_AND_ORGANIZATION ( #225, #157 ) ;
#244 = ADVANCED_FACE ( 'NONE', ( #41, #242 ), #55, .T. ) ;
#245 = APPROVAL_DATE_TIME ( #80, #232 ) ;
#246 = EDGE_LOOP ( 'NONE', ( #25 ) ) ;
#247 = EDGE_LOOP ( 'NONE', ( #104 ) ) ;
#248 = ORIENTED_EDGE ( 'NONE', *, *, #66, .T. ) ;
#249 = AXIS2_PLACEMENT_3D ( 'NONE', #87, #216, #33 ) ;
#250 = CC_DESIGN_APPROVAL ( #232, ( #162 ) ) ;
#251 = EDGE_LOOP ( 'NONE', ( #146 ) ) ;
#252 = EDGE_LOOP ( 'NONE', ( #173 ) ) ;
#253 = FACE_OUTER_BOUND ( 'NONE', #251, .T. ) ;
#254 = CIRCLE ( 'NONE', #100, 2.999999999999994227 ) ;
#255 = CARTESIAN_POINT ( 'NONE',  ( 0.0000000000000000000, 0.0000000000000000000, 0.0000000000000000000 ) ) ;
#256 = DIRECTION ( 'NONE',  ( -3.491481338843133355E-15, 1.224646799147353207E-16, -1.000000000000000000 ) ) ;
#257 = DIRECTION ( 'NONE',  ( 3.491481338843133355E-15, -4.327174794786742882E-16, 1.000000000000000000 ) ) ;
#258 = CIRCLE ( 'NONE', #134, 2.333974596215572905 ) ;
#259 = MANIFOLD_SOLID_BREP ( 'Corps-Déplacer/Copier1[1]', #148 ) ;
#260 = EDGE_CURVE ( 'NONE', #114, #114, #254, .T. ) ;
#261 = AXIS2_PLACEMENT_3D ( 'NONE', #198, #262, #18 ) ;
#262 = DIRECTION ( 'NONE',  ( -3.491481338843133355E-15, 1.224646799147353207E-16, -1.000000000000000000 ) ) ;
#263 = PERSON_AND_ORGANIZATION_ROLE ( 'classification_officer' ) ;
ENDSEC;
END-ISO-10303-21;
