ISO-10303-21;
HEADER;
FILE_DESCRIPTION (( 'STEP AP203' ),
    '1' );
FILE_NAME ('959726.step',
    '2021-11-24T07:09:57',
    ( '' ),
    ( '' ),
    'SwSTEP 2.0',
    'SolidWorks 2019',
    '' );
FILE_SCHEMA (( 'CONFIG_CONTROL_DESIGN' ));
ENDSEC;

DATA;
#1 = EDGE_LOOP ( 'NONE', ( #76 ) ) ;
#2 = PERSON_AND_ORGANIZATION_ROLE ( 'classification_officer' ) ;
#3 = DIRECTION ( 'NONE',  ( -3.491481338843133355E-15, 1.224646799147353207E-16, -1.000000000000000000 ) ) ;
#4 = CARTESIAN_POINT ( 'NONE',  ( 1.326762908760390423E-13, 8.998558695971103225E-33, 38.00000000000000000 ) ) ;
#5 = FACE_OUTER_BOUND ( 'NONE', #183, .T. ) ;
#6 = APPROVAL_DATE_TIME ( #173, #239 ) ;
#7 = CARTESIAN_POINT ( 'NONE',  ( 7.197816643434953303E-15, 5.624099184981962608E-33, 2.061536621536083302 ) ) ;
#8 = ADVANCED_FACE ( 'NONE', ( #19 ), #95, .F. ) ;
#9 = DIRECTION ( 'NONE',  ( 0.0000000000000000000, 1.000000000000000000, 0.0000000000000000000 ) ) ;
#10 = AXIS2_PLACEMENT_3D ( 'NONE', #120, #100, #140 ) ;
#11 = CARTESIAN_POINT ( 'NONE',  ( 2.367900757518973625E-14, 1.499999999999996225, 6.781937314617162649 ) ) ;
#12 = CC_DESIGN_PERSON_AND_ORGANIZATION_ASSIGNMENT ( #189, #2, ( #167 ) ) ;
#13 = DATE_AND_TIME ( #53, #209 ) ;
#14 =( NAMED_UNIT ( * ) PLANE_ANGLE_UNIT ( ) SI_UNIT ( $, .RADIAN. ) );
#15 = CIRCLE ( 'NONE', #52, 0.7499999999999998890 ) ;
#16 = VERTEX_POINT ( 'NONE', #11 ) ;
#17 = ORIENTED_EDGE ( 'NONE', *, *, #243, .F. ) ;
#18 = CC_DESIGN_APPROVAL ( #36, ( #135 ) ) ;
#19 = FACE_OUTER_BOUND ( 'NONE', #74, .T. ) ;
#20 = AXIS2_PLACEMENT_3D ( 'NONE', #54, #30, #107 ) ;
#21 = DIRECTION ( 'NONE',  ( -3.491481338843133355E-15, 1.224646799147353207E-16, -1.000000000000000000 ) ) ;
#22 = ADVANCED_FACE ( 'NONE', ( #5, #175 ), #153, .T. ) ;
#23 = DIRECTION ( 'NONE',  ( 0.0000000000000000000, 1.000000000000000000, 0.0000000000000000000 ) ) ;
#24 = CARTESIAN_POINT ( 'NONE',  ( 1.187103655206665183E-14, 0.0000000000000000000, 3.399999999999999911 ) ) ;
#25 = AXIS2_PLACEMENT_3D ( 'NONE', #64, #215, #171 ) ;
#26 = DIRECTION ( 'NONE',  ( 3.491481338843133355E-15, -1.224646799147353207E-16, 1.000000000000000000 ) ) ;
#27 = FACE_OUTER_BOUND ( 'NONE', #227, .T. ) ;
#28 = PERSON ( 'UNSPECIFIED', 'UNSPECIFIED', 'UNSPECIFIED', ('UNSPECIFIED'), ('UNSPECIFIED'), ('UNSPECIFIED') ) ;
#29 = VERTEX_POINT ( 'NONE', #51 ) ;
#30 = DIRECTION ( 'NONE',  ( 0.0000000000000000000, 0.0000000000000000000, 1.000000000000000000 ) ) ;
#31 = AXIS2_PLACEMENT_3D ( 'NONE', #235, #197, #83 ) ;
#32 = PERSON_AND_ORGANIZATION_ROLE ( 'creator' ) ;
#33 = EDGE_CURVE ( 'NONE', #69, #69, #93, .T. ) ;
#34 = PERSON_AND_ORGANIZATION_ROLE ( 'design_supplier' ) ;
#35 = ORIENTED_EDGE ( 'NONE', *, *, #243, .T. ) ;
#36 = APPROVAL ( #180, 'UNSPECIFIED' ) ;
#37 = EDGE_LOOP ( 'NONE', ( #188 ) ) ;
#38 = MANIFOLD_SOLID_BREP ( 'Corps-Déplacer/Copier1[1]', #155 ) ;
#39 = EDGE_LOOP ( 'NONE', ( #17 ) ) ;
#40 = APPROVAL_PERSON_ORGANIZATION ( #67, #239, #43 ) ;
#41 = DIRECTION ( 'NONE',  ( 3.491481338843133355E-15, -1.224646799147353207E-16, 1.000000000000000000 ) ) ;
#42 = FACE_OUTER_BOUND ( 'NONE', #166, .T. ) ;
#43 = APPROVAL_ROLE ( '' ) ;
#44 = ADVANCED_FACE ( 'NONE', ( #218, #62 ), #185, .T. ) ;
#45 = CARTESIAN_POINT ( 'NONE',  ( 0.0000000000000000000, 0.0000000000000000000, 0.0000000000000000000 ) ) ;
#46 = LOCAL_TIME ( 8, 9, 57.00000000000000000, #90 ) ;
#47 = FACE_OUTER_BOUND ( 'NONE', #61, .T. ) ;
#48 = APPROVAL_STATUS ( 'not_yet_approved' ) ;
#49 = APPROVAL_STATUS ( 'not_yet_approved' ) ;
#50 = CIRCLE ( 'NONE', #119, 1.500000000000003331 ) ;
#51 = CARTESIAN_POINT ( 'NONE',  ( 1.068957861474239953E-32, 0.1000000000000000056, 3.061616997868384713E-18 ) ) ;
#52 = AXIS2_PLACEMENT_3D ( 'NONE', #134, #3, #23 ) ;
#53 = CALENDAR_DATE ( 2021, 24, 11 ) ;
#54 = CARTESIAN_POINT ( 'NONE',  ( 0.0000000000000000000, 0.0000000000000000000, 0.0000000000000000000 ) ) ;
#55 = APPROVAL_DATE_TIME ( #241, #36 ) ;
#56 = LOCAL_TIME ( 8, 9, 57.00000000000000000, #157 ) ;
#57 = EDGE_CURVE ( 'NONE', #145, #145, #50, .T. ) ;
#58 = CC_DESIGN_DATE_AND_TIME_ASSIGNMENT ( #139, #220, ( #167 ) ) ;
#59 = ORIENTED_EDGE ( 'NONE', *, *, #57, .T. ) ;
#60 = ORIENTED_EDGE ( 'NONE', *, *, #77, .F. ) ;
#61 = EDGE_LOOP ( 'NONE', ( #35 ) ) ;
#62 = FACE_BOUND ( 'NONE', #39, .T. ) ;
#63 = AXIS2_PLACEMENT_3D ( 'NONE', #221, #136, #114 ) ;
#64 = CARTESIAN_POINT ( 'NONE',  ( 1.326762908760390423E-13, -4.653657836759941941E-15, 38.00000000000000000 ) ) ;
#65 = FACE_OUTER_BOUND ( 'NONE', #150, .T. ) ;
#66 = DIRECTION ( 'NONE',  ( -4.275831445896958607E-31, -1.000000000000000000, -1.224646799147353207E-16 ) ) ;
#67 = PERSON_AND_ORGANIZATION ( #28, #124 ) ;
#68 = DIRECTION ( 'NONE',  ( -3.491481338843133355E-15, 1.224646799147353207E-16, -1.000000000000000000 ) ) ;
#69 = VERTEX_POINT ( 'NONE', #223 ) ;
#70 = DATE_TIME_ROLE ( 'creation_date' ) ;
#71 = ADVANCED_FACE ( 'NONE', ( #193, #115 ), #196, .T. ) ;
#72 = CARTESIAN_POINT ( 'NONE',  ( 7.197816643434953303E-15, 0.7499999999999996669, 2.061536621536083302 ) ) ;
#73 = LOCAL_TIME ( 8, 9, 57.00000000000000000, #216 ) ;
#74 = EDGE_LOOP ( 'NONE', ( #133 ) ) ;
#75 = ORIENTED_EDGE ( 'NONE', *, *, #147, .T. ) ;
#76 = ORIENTED_EDGE ( 'NONE', *, *, #208, .T. ) ;
#77 = EDGE_CURVE ( 'NONE', #161, #161, #15, .T. ) ;
#78 = CARTESIAN_POINT ( 'NONE',  ( 1.187103655206665183E-14, -4.163799117101000559E-16, 3.399999999999999911 ) ) ;
#79 = PLANE ( 'NONE',  #10 ) ;
#80 = CC_DESIGN_DATE_AND_TIME_ASSIGNMENT ( #162, #70, ( #174 ) ) ;
#81 = CARTESIAN_POINT ( 'NONE',  ( -3.206873584422718626E-32, 1.124819836996393035E-33, -9.184850993605147205E-18 ) ) ;
#82 = SHAPE_DEFINITION_REPRESENTATION ( #163, #127 ) ;
#83 = DIRECTION ( 'NONE',  ( 0.0000000000000000000, 1.000000000000000000, 0.0000000000000000000 ) ) ;
#84 = DIRECTION ( 'NONE',  ( -3.491481338843133355E-15, 1.224646799147353207E-16, -1.000000000000000000 ) ) ;
#85 = APPROVAL_PERSON_ORGANIZATION ( #142, #105, #146 ) ;
#86 = APPLICATION_PROTOCOL_DEFINITION ( 'international standard', 'config_control_design', 1994, #172 ) ;
#87 = CALENDAR_DATE ( 2021, 24, 11 ) ;
#88 = PERSON_AND_ORGANIZATION ( #28, #124 ) ;
#89 = CIRCLE ( 'NONE', #190, 0.1000000000000000056 ) ;
#90 = COORDINATED_UNIVERSAL_TIME_OFFSET ( 1, 0, .AHEAD. ) ;
#91 = ORIENTED_EDGE ( 'NONE', *, *, #57, .F. ) ;
#92 = ADVANCED_FACE ( 'NONE', ( #116 ), #137, .T. ) ;
#93 = CIRCLE ( 'NONE', #230, 0.7500000000000011102 ) ;
#94 = AXIS2_PLACEMENT_3D ( 'NONE', #160, #68, #9 ) ;
#95 = PLANE ( 'NONE',  #144 ) ;
#96 = DESIGN_CONTEXT ( 'detailed design', #203, 'design' ) ;
#97 = EDGE_LOOP ( 'NONE', ( #131 ) ) ;
#98 = CC_DESIGN_APPROVAL ( #239, ( #167 ) ) ;
#99 = DIRECTION ( 'NONE',  ( -3.491481338843133355E-15, 1.224646799147353207E-16, -1.000000000000000000 ) ) ;
#100 = DIRECTION ( 'NONE',  ( 3.491481338843133355E-15, -1.224646799147353207E-16, 1.000000000000000000 ) ) ;
#101 = CC_DESIGN_PERSON_AND_ORGANIZATION_ASSIGNMENT ( #128, #111, ( #135 ) ) ;
#102 = DIRECTION ( 'NONE',  ( 4.275831445896958607E-31, 1.000000000000000000, 1.224646799147353207E-16 ) ) ;
#103 = DIRECTION ( 'NONE',  ( 0.0000000000000000000, 1.000000000000000000, 0.0000000000000000000 ) ) ;
#104 = CYLINDRICAL_SURFACE ( 'NONE', #130, 0.7500000000000004441 ) ;
#105 = APPROVAL ( #48, 'UNSPECIFIED' ) ;
#106 = AXIS2_PLACEMENT_3D ( 'NONE', #24, #233, #229 ) ;
#107 = DIRECTION ( 'NONE',  ( 1.000000000000000000, 0.0000000000000000000, 0.0000000000000000000 ) ) ;
#108 = VERTEX_POINT ( 'NONE', #72 ) ;
#109 = CARTESIAN_POINT ( 'NONE',  ( 1.316288464743861212E-13, 1.499999999999998668, 37.69999999999999574 ) ) ;
#110 = APPROVAL_ROLE ( '' ) ;
#111 = PERSON_AND_ORGANIZATION_ROLE ( 'creator' ) ;
#112 = ADVANCED_FACE ( 'NONE', ( #47 ), #79, .F. ) ;
#113 = ORIENTED_EDGE ( 'NONE', *, *, #33, .F. ) ;
#114 = DIRECTION ( 'NONE',  ( 4.275831445896959482E-31, 1.000000000000000000, 1.224646799147353207E-16 ) ) ;
#115 = FACE_BOUND ( 'NONE', #207, .T. ) ;
#116 = FACE_OUTER_BOUND ( 'NONE', #37, .T. ) ;
#117 = CALENDAR_DATE ( 2021, 24, 11 ) ;
#118 = DIRECTION ( 'NONE',  ( -3.491481338843133355E-15, 1.224646799147353207E-16, -1.000000000000000000 ) ) ;
#119 = AXIS2_PLACEMENT_3D ( 'NONE', #169, #99, #217 ) ;
#120 = CARTESIAN_POINT ( 'NONE',  ( -1.603436792211359313E-32, 5.624099184981965174E-34, -4.592425496802573602E-18 ) ) ;
#121 = DIRECTION ( 'NONE',  ( 4.275831445896958607E-31, 1.000000000000000000, 1.224646799147353207E-16 ) ) ;
#122 = MANIFOLD_SOLID_BREP ( 'Corps-Déplacer/Copier1[2]', #200 ) ;
#123 = VERTEX_POINT ( 'NONE', #222 ) ;
#124 = ORGANIZATION ( 'UNSPECIFIED', 'UNSPECIFIED', '' ) ;
#125 = ADVANCED_FACE ( 'NONE', ( #42, #156 ), #240, .F. ) ;
#126 = APPROVAL_DATE_TIME ( #13, #105 ) ;
#127 = ADVANCED_BREP_SHAPE_REPRESENTATION ( '959726', ( #38, #122, #20 ), #219 ) ;
#128 = PERSON_AND_ORGANIZATION ( #28, #124 ) ;
#129 = EDGE_LOOP ( 'NONE', ( #113 ) ) ;
#130 = AXIS2_PLACEMENT_3D ( 'NONE', #45, #118, #195 ) ;
#131 = ORIENTED_EDGE ( 'NONE', *, *, #211, .F. ) ;
#132 = EDGE_LOOP ( 'NONE', ( #91 ) ) ;
#133 = ORIENTED_EDGE ( 'NONE', *, *, #77, .T. ) ;
#134 = CARTESIAN_POINT ( 'NONE',  ( 7.197816643434953303E-15, -2.524654224889212613E-16, 2.061536621536083302 ) ) ;
#135 = PRODUCT_DEFINITION_FORMATION_WITH_SPECIFIED_SOURCE ( 'ANY', '', #159, .NOT_KNOWN. ) ;
#136 = DIRECTION ( 'NONE',  ( -3.491481338843133355E-15, 1.224646799147353207E-16, -1.000000000000000000 ) ) ;
#137 = PLANE ( 'NONE',  #228 ) ;
#138 = DIRECTION ( 'NONE',  ( 0.0000000000000000000, 1.000000000000000000, 0.0000000000000000000 ) ) ;
#139 = DATE_AND_TIME ( #234, #73 ) ;
#140 = DIRECTION ( 'NONE',  ( -4.275831445896958607E-31, -1.000000000000000000, -1.224646799147353207E-16 ) ) ;
#141 =( NAMED_UNIT ( * ) SI_UNIT ( $, .STERADIAN. ) SOLID_ANGLE_UNIT ( ) );
#142 = PERSON_AND_ORGANIZATION ( #28, #124 ) ;
#143 = CC_DESIGN_PERSON_AND_ORGANIZATION_ASSIGNMENT ( #202, #32, ( #174 ) ) ;
#144 = AXIS2_PLACEMENT_3D ( 'NONE', #191, #41, #231 ) ;
#145 = VERTEX_POINT ( 'NONE', #109 ) ;
#146 = APPROVAL_ROLE ( '' ) ;
#147 = EDGE_CURVE ( 'NONE', #16, #16, #201, .T. ) ;
#148 = CARTESIAN_POINT ( 'NONE',  ( -3.206873584422718626E-32, 1.124819836996393035E-33, -9.184850993605147205E-18 ) ) ;
#149 = CC_DESIGN_APPROVAL ( #105, ( #174 ) ) ;
#150 = EDGE_LOOP ( 'NONE', ( #60 ) ) ;
#151 = EDGE_LOOP ( 'NONE', ( #59 ) ) ;
#152 = CIRCLE ( 'NONE', #236, 0.7499999999999998890 ) ;
#153 = CYLINDRICAL_SURFACE ( 'NONE', #63, 1.500000000000000000 ) ;
#154 = CC_DESIGN_SECURITY_CLASSIFICATION ( #167, ( #135 ) ) ;
#155 = CLOSED_SHELL ( 'NONE', ( #8, #184, #125, #22, #71, #182 ) ) ;
#156 = FACE_OUTER_BOUND ( 'NONE', #129, .T. ) ;
#157 = COORDINATED_UNIVERSAL_TIME_OFFSET ( 1, 0, .AHEAD. ) ;
#158 = DIRECTION ( 'NONE',  ( -3.491481338843133355E-15, 1.224646799147353207E-16, -1.000000000000000000 ) ) ;
#159 = PRODUCT ( '959726', '959726', '', ( #238 ) ) ;
#160 = CARTESIAN_POINT ( 'NONE',  ( 1.326762908760390423E-13, -4.653657836759941941E-15, 38.00000000000000000 ) ) ;
#161 = VERTEX_POINT ( 'NONE', #177 ) ;
#162 = DATE_AND_TIME ( #87, #242 ) ;
#163 = PRODUCT_DEFINITION_SHAPE ( 'NONE', 'NONE',  #174 ) ;
#164 = AXIS2_PLACEMENT_3D ( 'NONE', #4, #158, #102 ) ;
#165 = CALENDAR_DATE ( 2021, 24, 11 ) ;
#166 = EDGE_LOOP ( 'NONE', ( #75 ) ) ;
#167 = SECURITY_CLASSIFICATION ( '', '', #224 ) ;
#168 = CC_DESIGN_PERSON_AND_ORGANIZATION_ASSIGNMENT ( #206, #34, ( #135 ) ) ;
#169 = CARTESIAN_POINT ( 'NONE',  ( 1.316288464743861212E-13, -4.616918432785521081E-15, 37.69999999999999574 ) ) ;
#170 = FACE_OUTER_BOUND ( 'NONE', #97, .T. ) ;
#171 = DIRECTION ( 'NONE',  ( 0.0000000000000000000, 1.000000000000000000, 0.0000000000000000000 ) ) ;
#172 = APPLICATION_CONTEXT ( 'configuration controlled 3d designs of mechanical parts and assemblies' ) ;
#173 = DATE_AND_TIME ( #117, #56 ) ;
#174 = PRODUCT_DEFINITION ( 'UNKNOWN', '', #135, #96 ) ;
#175 = FACE_OUTER_BOUND ( 'NONE', #151, .T. ) ;
#176 = CARTESIAN_POINT ( 'NONE',  ( 7.197816643434953303E-15, -2.524654224889212613E-16, 2.061536621536083302 ) ) ;
#177 = CARTESIAN_POINT ( 'NONE',  ( 7.197816643434953303E-15, 0.7499999999999996669, 2.061536621536083302 ) ) ;
#178 = DIRECTION ( 'NONE',  ( -3.491481338843133355E-15, 1.224646799147353207E-16, -1.000000000000000000 ) ) ;
#179 = COORDINATED_UNIVERSAL_TIME_OFFSET ( 1, 0, .AHEAD. ) ;
#180 = APPROVAL_STATUS ( 'not_yet_approved' ) ;
#181 = CC_DESIGN_PERSON_AND_ORGANIZATION_ASSIGNMENT ( #88, #198, ( #159 ) ) ;
#182 = ADVANCED_FACE ( 'NONE', ( #170 ), #232, .F. ) ;
#183 = EDGE_LOOP ( 'NONE', ( #210 ) ) ;
#184 = ADVANCED_FACE ( 'NONE', ( #27, #65 ), #104, .T. ) ;
#185 = CONICAL_SURFACE ( 'NONE', #213, 0.1000000000000000056, 0.3054326190990083179 ) ;
#186 = CIRCLE ( 'NONE', #94, 1.200000000000003286 ) ;
#187 = UNCERTAINTY_MEASURE_WITH_UNIT (LENGTH_MEASURE( 1.000000000000000082E-05 ), #237, 'distance_accuracy_value', 'NONE');
#188 = ORIENTED_EDGE ( 'NONE', *, *, #208, .F. ) ;
#189 = PERSON_AND_ORGANIZATION ( #28, #124 ) ;
#190 = AXIS2_PLACEMENT_3D ( 'NONE', #148, #178, #121 ) ;
#191 = CARTESIAN_POINT ( 'NONE',  ( 7.197816643434953303E-15, 5.624099184981962608E-33, 2.061536621536083302 ) ) ;
#192 = DIRECTION ( 'NONE',  ( -4.275831445896958607E-31, -1.000000000000000000, -1.224646799147353207E-16 ) ) ;
#193 = FACE_OUTER_BOUND ( 'NONE', #132, .T. ) ;
#194 = PRODUCT_RELATED_PRODUCT_CATEGORY ( 'detail', '', ( #159 ) ) ;
#195 = DIRECTION ( 'NONE',  ( 4.275831445896958607E-31, 1.000000000000000000, 1.224646799147353207E-16 ) ) ;
#196 = CONICAL_SURFACE ( 'NONE', #25, 1.200000000000003286, 0.7853981633974453924 ) ;
#197 = DIRECTION ( 'NONE',  ( -3.491481338843133355E-15, 1.224646799147353207E-16, -1.000000000000000000 ) ) ;
#198 = PERSON_AND_ORGANIZATION_ROLE ( 'design_owner' ) ;
#199 = APPLICATION_PROTOCOL_DEFINITION ( 'international standard', 'config_control_design', 1994, #203 ) ;
#200 = CLOSED_SHELL ( 'NONE', ( #112, #44, #92 ) ) ;
#201 = CIRCLE ( 'NONE', #31, 1.499999999999996891 ) ;
#202 = PERSON_AND_ORGANIZATION ( #28, #124 ) ;
#203 = APPLICATION_CONTEXT ( 'configuration controlled 3d designs of mechanical parts and assemblies' ) ;
#204 = PERSON_AND_ORGANIZATION ( #28, #124 ) ;
#205 = COORDINATED_UNIVERSAL_TIME_OFFSET ( 1, 0, .AHEAD. ) ;
#206 = PERSON_AND_ORGANIZATION ( #28, #124 ) ;
#207 = EDGE_LOOP ( 'NONE', ( #226 ) ) ;
#208 = EDGE_CURVE ( 'NONE', #108, #108, #152, .T. ) ;
#209 = LOCAL_TIME ( 8, 9, 57.00000000000000000, #179 ) ;
#210 = ORIENTED_EDGE ( 'NONE', *, *, #147, .F. ) ;
#211 = EDGE_CURVE ( 'NONE', #123, #123, #186, .T. ) ;
#212 = ORIENTED_EDGE ( 'NONE', *, *, #33, .T. ) ;
#213 = AXIS2_PLACEMENT_3D ( 'NONE', #81, #214, #192 ) ;
#214 = DIRECTION ( 'NONE',  ( 3.491481338843133355E-15, -1.224646799147353207E-16, 1.000000000000000000 ) ) ;
#215 = DIRECTION ( 'NONE',  ( -3.491481338843133355E-15, 1.224646799147353207E-16, -1.000000000000000000 ) ) ;
#216 = COORDINATED_UNIVERSAL_TIME_OFFSET ( 1, 0, .AHEAD. ) ;
#217 = DIRECTION ( 'NONE',  ( 0.0000000000000000000, 1.000000000000000000, 0.0000000000000000000 ) ) ;
#218 = FACE_OUTER_BOUND ( 'NONE', #1, .T. ) ;
#219 =( GEOMETRIC_REPRESENTATION_CONTEXT ( 3 ) GLOBAL_UNCERTAINTY_ASSIGNED_CONTEXT ( ( #187 ) ) GLOBAL_UNIT_ASSIGNED_CONTEXT ( ( #237, #14, #141 ) ) REPRESENTATION_CONTEXT ( 'NONE', 'WORKASPACE' ) );
#220 = DATE_TIME_ROLE ( 'classification_date' ) ;
#221 = CARTESIAN_POINT ( 'NONE',  ( 0.0000000000000000000, 0.0000000000000000000, 0.0000000000000000000 ) ) ;
#222 = CARTESIAN_POINT ( 'NONE',  ( 1.326762908760390423E-13, 1.199999999999998845, 38.00000000000000000 ) ) ;
#223 = CARTESIAN_POINT ( 'NONE',  ( 1.187103655206665183E-14, 0.7500000000000006661, 3.399999999999999911 ) ) ;
#224 = SECURITY_CLASSIFICATION_LEVEL ( 'unclassified' ) ;
#225 = APPROVAL_PERSON_ORGANIZATION ( #204, #36, #110 ) ;
#226 = ORIENTED_EDGE ( 'NONE', *, *, #211, .T. ) ;
#227 = EDGE_LOOP ( 'NONE', ( #212 ) ) ;
#228 = AXIS2_PLACEMENT_3D ( 'NONE', #7, #26, #66 ) ;
#229 = DIRECTION ( 'NONE',  ( 4.355100981429076768E-31, 1.000000000000000000, 1.224646799147353207E-16 ) ) ;
#230 = AXIS2_PLACEMENT_3D ( 'NONE', #78, #21, #138 ) ;
#231 = DIRECTION ( 'NONE',  ( -4.275831445896958607E-31, -1.000000000000000000, -1.224646799147353207E-16 ) ) ;
#232 = PLANE ( 'NONE',  #164 ) ;
#233 = DIRECTION ( 'NONE',  ( -3.491481338843133355E-15, 1.224646799147353207E-16, -1.000000000000000000 ) ) ;
#234 = CALENDAR_DATE ( 2021, 24, 11 ) ;
#235 = CARTESIAN_POINT ( 'NONE',  ( 2.367900757518973625E-14, -8.305477824363904586E-16, 6.781937314617162649 ) ) ;
#236 = AXIS2_PLACEMENT_3D ( 'NONE', #176, #84, #103 ) ;
#237 =( LENGTH_UNIT ( ) NAMED_UNIT ( * ) SI_UNIT ( .MILLI., .METRE. ) );
#238 = MECHANICAL_CONTEXT ( 'NONE', #172, 'mechanical' ) ;
#239 = APPROVAL ( #49, 'UNSPECIFIED' ) ;
#240 = TOROIDAL_SURFACE ( 'NONE', #106, 8.750000000000000000, 8.000000000000000000 ) ;
#241 = DATE_AND_TIME ( #165, #46 ) ;
#242 = LOCAL_TIME ( 8, 9, 57.00000000000000000, #205 ) ;
#243 = EDGE_CURVE ( 'NONE', #29, #29, #89, .T. ) ;
ENDSEC;
END-ISO-10303-21;
