ISO-10303-21;
HEADER;
FILE_DESCRIPTION (( 'STEP AP203' ),
    '1' );
FILE_NAME ('959725.step',
    '2021-11-24T07:09:56',
    ( '' ),
    ( '' ),
    'SwSTEP 2.0',
    'SolidWorks 2019',
    '' );
FILE_SCHEMA (( 'CONFIG_CONTROL_DESIGN' ));
ENDSEC;

DATA;
#1 = UNCERTAINTY_MEASURE_WITH_UNIT (LENGTH_MEASURE( 1.000000000000000082E-05 ), #105, 'distance_accuracy_value', 'NONE');
#2 = PERSON_AND_ORGANIZATION ( #173, #175 ) ;
#3 = DATE_AND_TIME ( #182, #102 ) ;
#4 = APPLICATION_PROTOCOL_DEFINITION ( 'international standard', 'config_control_design', 1994, #139 ) ;
#5 = EDGE_LOOP ( 'NONE', ( #233 ) ) ;
#6 = CIRCLE ( 'NONE', #7, 1.200000000000003286 ) ;
#7 = AXIS2_PLACEMENT_3D ( 'NONE', #118, #239, #81 ) ;
#8 = DIRECTION ( 'NONE',  ( 3.491481338843133355E-15, -1.224646799147353207E-16, 1.000000000000000000 ) ) ;
#9 = ADVANCED_FACE ( 'NONE', ( #69 ), #200, .T. ) ;
#10 = CARTESIAN_POINT ( 'NONE',  ( 7.474655745105531282E-15, -2.621756310461875793E-16, 2.140826491595164249 ) ) ;
#11 = APPROVAL_DATE_TIME ( #234, #171 ) ;
#12 = DIRECTION ( 'NONE',  ( -3.491481338843133355E-15, 1.224646799147353207E-16, -1.000000000000000000 ) ) ;
#13 = ORIENTED_EDGE ( 'NONE', *, *, #78, .T. ) ;
#14 = FACE_OUTER_BOUND ( 'NONE', #150, .T. ) ;
#15 = DIRECTION ( 'NONE',  ( 3.491481338843133355E-15, -1.224646799147353207E-16, 1.000000000000000000 ) ) ;
#16 = CIRCLE ( 'NONE', #231, 1.500000000000003331 ) ;
#17 = DIRECTION ( 'NONE',  ( 3.491481338843133355E-15, -1.224646799147353207E-16, 1.000000000000000000 ) ) ;
#18 = DIRECTION ( 'NONE',  ( -3.491481338843133355E-15, 1.224646799147353207E-16, -1.000000000000000000 ) ) ;
#19 = DIRECTION ( 'NONE',  ( -3.491481338843133355E-15, 1.224646799147353207E-16, -1.000000000000000000 ) ) ;
#20 = DIRECTION ( 'NONE',  ( 1.000000000000000000, 0.0000000000000000000, 0.0000000000000000000 ) ) ;
#21 = AXIS2_PLACEMENT_3D ( 'NONE', #22, #108, #20 ) ;
#22 = CARTESIAN_POINT ( 'NONE',  ( 0.0000000000000000000, 0.0000000000000000000, 0.0000000000000000000 ) ) ;
#23 = PERSON_AND_ORGANIZATION ( #173, #175 ) ;
#24 = SECURITY_CLASSIFICATION_LEVEL ( 'unclassified' ) ;
#25 = ADVANCED_FACE ( 'NONE', ( #147 ), #113, .F. ) ;
#26 = CALENDAR_DATE ( 2021, 24, 11 ) ;
#27 = DIRECTION ( 'NONE',  ( -4.275831445896958607E-31, -1.000000000000000000, -1.224646799147353207E-16 ) ) ;
#28 = DATE_TIME_ROLE ( 'classification_date' ) ;
#29 = CC_DESIGN_APPROVAL ( #38, ( #220 ) ) ;
#30 = EDGE_LOOP ( 'NONE', ( #115 ) ) ;
#31 = CC_DESIGN_PERSON_AND_ORGANIZATION_ASSIGNMENT ( #196, #128, ( #220 ) ) ;
#32 = EDGE_LOOP ( 'NONE', ( #169 ) ) ;
#33 = CARTESIAN_POINT ( 'NONE',  ( 2.367900757518973625E-14, -8.305477824363904586E-16, 6.781937314617162649 ) ) ;
#34 = CYLINDRICAL_SURFACE ( 'NONE', #68, 1.500000000000000000 ) ;
#35 = FACE_OUTER_BOUND ( 'NONE', #90, .T. ) ;
#36 = EDGE_CURVE ( 'NONE', #117, #117, #189, .T. ) ;
#37 = DIRECTION ( 'NONE',  ( 0.0000000000000000000, 1.000000000000000000, 0.0000000000000000000 ) ) ;
#38 = APPROVAL ( #107, 'UNSPECIFIED' ) ;
#39 = DIRECTION ( 'NONE',  ( -3.491481338843133355E-15, 1.224646799147353207E-16, -1.000000000000000000 ) ) ;
#40 = APPROVAL_STATUS ( 'not_yet_approved' ) ;
#41 = APPROVAL_ROLE ( '' ) ;
#42 = AXIS2_PLACEMENT_3D ( 'NONE', #194, #79, #223 ) ;
#43 = AXIS2_PLACEMENT_3D ( 'NONE', #137, #15, #98 ) ;
#44 = PERSON_AND_ORGANIZATION ( #173, #175 ) ;
#45 = PERSON_AND_ORGANIZATION_ROLE ( 'creator' ) ;
#46 = ADVANCED_FACE ( 'NONE', ( #172, #60 ), #92, .T. ) ;
#47 = COORDINATED_UNIVERSAL_TIME_OFFSET ( 1, 0, .AHEAD. ) ;
#48 = CLOSED_SHELL ( 'NONE', ( #166, #64, #9 ) ) ;
#49 = ORIENTED_EDGE ( 'NONE', *, *, #78, .F. ) ;
#50 = SHAPE_DEFINITION_REPRESENTATION ( #110, #153 ) ;
#51 = DIRECTION ( 'NONE',  ( 3.491481338843133355E-15, -1.224646799147353207E-16, 1.000000000000000000 ) ) ;
#52 = ADVANCED_FACE ( 'NONE', ( #95 ), #140, .F. ) ;
#53 = CC_DESIGN_APPROVAL ( #171, ( #131 ) ) ;
#54 = EDGE_LOOP ( 'NONE', ( #186 ) ) ;
#55 = EDGE_LOOP ( 'NONE', ( #71 ) ) ;
#56 = CARTESIAN_POINT ( 'NONE',  ( 1.187103655206665183E-14, 0.0000000000000000000, 3.399999999999999911 ) ) ;
#57 = AXIS2_PLACEMENT_3D ( 'NONE', #58, #208, #37 ) ;
#58 = CARTESIAN_POINT ( 'NONE',  ( 1.326762908760390423E-13, -4.653657836759941941E-15, 38.00000000000000000 ) ) ;
#59 = AXIS2_PLACEMENT_3D ( 'NONE', #210, #236, #192 ) ;
#60 = FACE_BOUND ( 'NONE', #54, .T. ) ;
#61 = CARTESIAN_POINT ( 'NONE',  ( 1.068957861474239405E-32, 0.07499999999999999722, 3.061616997868381631E-18 ) ) ;
#62 = FACE_OUTER_BOUND ( 'NONE', #114, .T. ) ;
#63 = CLOSED_SHELL ( 'NONE', ( #25, #195, #211, #87, #46, #52 ) ) ;
#64 = ADVANCED_FACE ( 'NONE', ( #241, #82 ), #136, .T. ) ;
#65 = APPROVAL_ROLE ( '' ) ;
#66 = CC_DESIGN_PERSON_AND_ORGANIZATION_ASSIGNMENT ( #88, #162, ( #161 ) ) ;
#67 = CALENDAR_DATE ( 2021, 24, 11 ) ;
#68 = AXIS2_PLACEMENT_3D ( 'NONE', #221, #174, #141 ) ;
#69 = FACE_OUTER_BOUND ( 'NONE', #203, .T. ) ;
#70 = PRODUCT_RELATED_PRODUCT_CATEGORY ( 'detail', '', ( #146 ) ) ;
#71 = ORIENTED_EDGE ( 'NONE', *, *, #156, .F. ) ;
#72 = ORIENTED_EDGE ( 'NONE', *, *, #156, .T. ) ;
#73 = ORIENTED_EDGE ( 'NONE', *, *, #109, .T. ) ;
#74 = ORIENTED_EDGE ( 'NONE', *, *, #109, .F. ) ;
#75 = CARTESIAN_POINT ( 'NONE',  ( 7.474655745105531282E-15, 0.7499999999999997780, 2.140826491595164249 ) ) ;
#76 = AXIS2_PLACEMENT_3D ( 'NONE', #56, #19, #120 ) ;
#77 = AXIS2_PLACEMENT_3D ( 'NONE', #133, #51, #27 ) ;
#78 = EDGE_CURVE ( 'NONE', #80, #80, #116, .T. ) ;
#79 = DIRECTION ( 'NONE',  ( -3.491481338843133355E-15, 1.224646799147353207E-16, -1.000000000000000000 ) ) ;
#80 = VERTEX_POINT ( 'NONE', #61 ) ;
#81 = DIRECTION ( 'NONE',  ( 0.0000000000000000000, 1.000000000000000000, 0.0000000000000000000 ) ) ;
#82 = FACE_BOUND ( 'NONE', #201, .T. ) ;
#83 = AXIS2_PLACEMENT_3D ( 'NONE', #10, #12, #157 ) ;
#84 = APPROVAL_PERSON_ORGANIZATION ( #93, #171, #218 ) ;
#85 = VERTEX_POINT ( 'NONE', #230 ) ;
#86 =( NAMED_UNIT ( * ) PLANE_ANGLE_UNIT ( ) SI_UNIT ( $, .RADIAN. ) );
#87 = ADVANCED_FACE ( 'NONE', ( #151, #62 ), #34, .T. ) ;
#88 = PERSON_AND_ORGANIZATION ( #173, #175 ) ;
#89 = APPROVAL ( #40, 'UNSPECIFIED' ) ;
#90 = EDGE_LOOP ( 'NONE', ( #188 ) ) ;
#91 = CC_DESIGN_APPROVAL ( #89, ( #161 ) ) ;
#92 = CONICAL_SURFACE ( 'NONE', #57, 1.200000000000003286, 0.7853981633974453924 ) ;
#93 = PERSON_AND_ORGANIZATION ( #173, #175 ) ;
#94 = ORIENTED_EDGE ( 'NONE', *, *, #216, .T. ) ;
#95 = FACE_OUTER_BOUND ( 'NONE', #5, .T. ) ;
#96 = CYLINDRICAL_SURFACE ( 'NONE', #42, 0.7500000000000005551 ) ;
#97 =( GEOMETRIC_REPRESENTATION_CONTEXT ( 3 ) GLOBAL_UNCERTAINTY_ASSIGNED_CONTEXT ( ( #1 ) ) GLOBAL_UNIT_ASSIGNED_CONTEXT ( ( #105, #86, #226 ) ) REPRESENTATION_CONTEXT ( 'NONE', 'WORKASPACE' ) );
#98 = DIRECTION ( 'NONE',  ( -4.275831445896958607E-31, -1.000000000000000000, -1.224646799147353207E-16 ) ) ;
#99 = CARTESIAN_POINT ( 'NONE',  ( 1.316288464743861212E-13, -4.616918432785521081E-15, 37.69999999999999574 ) ) ;
#100 = CARTESIAN_POINT ( 'NONE',  ( 1.326762908760390423E-13, 8.998558695971103225E-33, 38.00000000000000000 ) ) ;
#101 = EDGE_CURVE ( 'NONE', #222, #222, #6, .T. ) ;
#102 = LOCAL_TIME ( 8, 9, 56.00000000000000000, #106 ) ;
#103 = CARTESIAN_POINT ( 'NONE',  ( 1.187103655206665183E-14, 0.7500000000000006661, 3.399999999999999911 ) ) ;
#104 = DESIGN_CONTEXT ( 'detailed design', #232, 'design' ) ;
#105 =( LENGTH_UNIT ( ) NAMED_UNIT ( * ) SI_UNIT ( .MILLI., .METRE. ) );
#106 = COORDINATED_UNIVERSAL_TIME_OFFSET ( 1, 0, .AHEAD. ) ;
#107 = APPROVAL_STATUS ( 'not_yet_approved' ) ;
#108 = DIRECTION ( 'NONE',  ( 0.0000000000000000000, 0.0000000000000000000, 1.000000000000000000 ) ) ;
#109 = EDGE_CURVE ( 'NONE', #119, #119, #179, .T. ) ;
#110 = PRODUCT_DEFINITION_SHAPE ( 'NONE', 'NONE',  #161 ) ;
#111 = LOCAL_TIME ( 8, 9, 56.00000000000000000, #183 ) ;
#112 = TOROIDAL_SURFACE ( 'NONE', #76, 8.750000000000000000, 8.000000000000000000 ) ;
#113 = PLANE ( 'NONE',  #159 ) ;
#114 = EDGE_LOOP ( 'NONE', ( #72 ) ) ;
#115 = ORIENTED_EDGE ( 'NONE', *, *, #216, .F. ) ;
#116 = CIRCLE ( 'NONE', #185, 0.07499999999999999722 ) ;
#117 = VERTEX_POINT ( 'NONE', #75 ) ;
#118 = CARTESIAN_POINT ( 'NONE',  ( 1.326762908760390423E-13, -4.653657836759941941E-15, 38.00000000000000000 ) ) ;
#119 = VERTEX_POINT ( 'NONE', #122 ) ;
#120 = DIRECTION ( 'NONE',  ( 4.355100981429076768E-31, 1.000000000000000000, 1.224646799147353207E-16 ) ) ;
#121 = FACE_OUTER_BOUND ( 'NONE', #149, .T. ) ;
#122 = CARTESIAN_POINT ( 'NONE',  ( 7.474655745105531282E-15, 0.7499999999999997780, 2.140826491595164249 ) ) ;
#123 = DATE_TIME_ROLE ( 'creation_date' ) ;
#124 = CC_DESIGN_SECURITY_CLASSIFICATION ( #131, ( #220 ) ) ;
#125 = EDGE_CURVE ( 'NONE', #165, #165, #152, .T. ) ;
#126 = PERSON_AND_ORGANIZATION_ROLE ( 'design_owner' ) ;
#127 = CC_DESIGN_PERSON_AND_ORGANIZATION_ASSIGNMENT ( #44, #126, ( #146 ) ) ;
#128 = PERSON_AND_ORGANIZATION_ROLE ( 'design_supplier' ) ;
#129 = APPROVAL_DATE_TIME ( #199, #89 ) ;
#130 = EDGE_LOOP ( 'NONE', ( #73 ) ) ;
#131 = SECURITY_CLASSIFICATION ( '', '', #24 ) ;
#132 = COORDINATED_UNIVERSAL_TIME_OFFSET ( 1, 0, .AHEAD. ) ;
#133 = CARTESIAN_POINT ( 'NONE',  ( 7.474655745105531282E-15, -4.748648962153721488E-32, 2.140826491595164249 ) ) ;
#134 = MANIFOLD_SOLID_BREP ( 'Corps-Déplacer/Copier1[1]', #63 ) ;
#135 = DIRECTION ( 'NONE',  ( -3.491481338843133355E-15, 1.224646799147353207E-16, -1.000000000000000000 ) ) ;
#136 = CONICAL_SURFACE ( 'NONE', #215, 0.07499999999999999722, 0.3054326190990082623 ) ;
#137 = CARTESIAN_POINT ( 'NONE',  ( -1.068957861474239679E-32, 3.749399456654644447E-34, -3.061616997868383172E-18 ) ) ;
#138 = DIRECTION ( 'NONE',  ( -3.491481338843133355E-15, 1.224646799147353207E-16, -1.000000000000000000 ) ) ;
#139 = APPLICATION_CONTEXT ( 'configuration controlled 3d designs of mechanical parts and assemblies' ) ;
#140 = PLANE ( 'NONE',  #205 ) ;
#141 = DIRECTION ( 'NONE',  ( 4.275831445896959482E-31, 1.000000000000000000, 1.224646799147353207E-16 ) ) ;
#142 = PERSON_AND_ORGANIZATION ( #173, #175 ) ;
#143 = LOCAL_TIME ( 8, 9, 56.00000000000000000, #225 ) ;
#144 = APPROVAL_DATE_TIME ( #3, #38 ) ;
#145 = DATE_AND_TIME ( #67, #111 ) ;
#146 = PRODUCT ( '959725', '959725', '', ( #212 ) ) ;
#147 = FACE_OUTER_BOUND ( 'NONE', #130, .T. ) ;
#148 = ORIENTED_EDGE ( 'NONE', *, *, #36, .T. ) ;
#149 = EDGE_LOOP ( 'NONE', ( #13 ) ) ;
#150 = EDGE_LOOP ( 'NONE', ( #94 ) ) ;
#151 = FACE_OUTER_BOUND ( 'NONE', #30, .T. ) ;
#152 = CIRCLE ( 'NONE', #237, 0.7500000000000011102 ) ;
#153 = ADVANCED_BREP_SHAPE_REPRESENTATION ( '959725', ( #134, #209, #21 ), #97 ) ;
#154 = CARTESIAN_POINT ( 'NONE',  ( 1.187103655206665183E-14, -4.163799117101000559E-16, 3.399999999999999911 ) ) ;
#155 = DIRECTION ( 'NONE',  ( 0.0000000000000000000, 1.000000000000000000, 0.0000000000000000000 ) ) ;
#156 = EDGE_CURVE ( 'NONE', #227, #227, #16, .T. ) ;
#157 = DIRECTION ( 'NONE',  ( 0.0000000000000000000, 1.000000000000000000, 0.0000000000000000000 ) ) ;
#158 = CC_DESIGN_PERSON_AND_ORGANIZATION_ASSIGNMENT ( #214, #45, ( #220 ) ) ;
#159 = AXIS2_PLACEMENT_3D ( 'NONE', #168, #8, #187 ) ;
#160 = APPLICATION_PROTOCOL_DEFINITION ( 'international standard', 'config_control_design', 1994, #232 ) ;
#161 = PRODUCT_DEFINITION ( 'UNKNOWN', '', #220, #104 ) ;
#162 = PERSON_AND_ORGANIZATION_ROLE ( 'creator' ) ;
#163 = LOCAL_TIME ( 8, 9, 56.00000000000000000, #132 ) ;
#164 = CALENDAR_DATE ( 2021, 24, 11 ) ;
#165 = VERTEX_POINT ( 'NONE', #103 ) ;
#166 = ADVANCED_FACE ( 'NONE', ( #121 ), #178, .F. ) ;
#167 = LOCAL_TIME ( 8, 9, 56.00000000000000000, #47 ) ;
#168 = CARTESIAN_POINT ( 'NONE',  ( 7.474655745105531282E-15, -4.748648962153721488E-32, 2.140826491595164249 ) ) ;
#169 = ORIENTED_EDGE ( 'NONE', *, *, #125, .T. ) ;
#170 = APPROVAL_STATUS ( 'not_yet_approved' ) ;
#171 = APPROVAL ( #170, 'UNSPECIFIED' ) ;
#172 = FACE_OUTER_BOUND ( 'NONE', #55, .T. ) ;
#173 = PERSON ( 'UNSPECIFIED', 'UNSPECIFIED', 'UNSPECIFIED', ('UNSPECIFIED'), ('UNSPECIFIED'), ('UNSPECIFIED') ) ;
#174 = DIRECTION ( 'NONE',  ( -3.491481338843133355E-15, 1.224646799147353207E-16, -1.000000000000000000 ) ) ;
#175 = ORGANIZATION ( 'UNSPECIFIED', 'UNSPECIFIED', '' ) ;
#176 = DIRECTION ( 'NONE',  ( 0.0000000000000000000, 1.000000000000000000, 0.0000000000000000000 ) ) ;
#177 = FACE_OUTER_BOUND ( 'NONE', #235, .T. ) ;
#178 = PLANE ( 'NONE',  #43 ) ;
#179 = CIRCLE ( 'NONE', #59, 0.7500000000000000000 ) ;
#180 = PERSON_AND_ORGANIZATION_ROLE ( 'classification_officer' ) ;
#181 = CC_DESIGN_PERSON_AND_ORGANIZATION_ASSIGNMENT ( #142, #180, ( #131 ) ) ;
#182 = CALENDAR_DATE ( 2021, 24, 11 ) ;
#183 = COORDINATED_UNIVERSAL_TIME_OFFSET ( 1, 0, .AHEAD. ) ;
#184 = ORIENTED_EDGE ( 'NONE', *, *, #36, .F. ) ;
#185 = AXIS2_PLACEMENT_3D ( 'NONE', #240, #138, #206 ) ;
#186 = ORIENTED_EDGE ( 'NONE', *, *, #101, .T. ) ;
#187 = DIRECTION ( 'NONE',  ( -4.275831445896958607E-31, -1.000000000000000000, -1.224646799147353207E-16 ) ) ;
#188 = ORIENTED_EDGE ( 'NONE', *, *, #125, .F. ) ;
#189 = CIRCLE ( 'NONE', #83, 0.7500000000000000000 ) ;
#190 = DIRECTION ( 'NONE',  ( 0.0000000000000000000, 1.000000000000000000, 0.0000000000000000000 ) ) ;
#191 = DIRECTION ( 'NONE',  ( 4.275831445896958607E-31, 1.000000000000000000, 1.224646799147353207E-16 ) ) ;
#192 = DIRECTION ( 'NONE',  ( 0.0000000000000000000, 1.000000000000000000, 0.0000000000000000000 ) ) ;
#193 = AXIS2_PLACEMENT_3D ( 'NONE', #33, #204, #176 ) ;
#194 = CARTESIAN_POINT ( 'NONE',  ( 0.0000000000000000000, 0.0000000000000000000, 0.0000000000000000000 ) ) ;
#195 = ADVANCED_FACE ( 'NONE', ( #238, #177 ), #96, .T. ) ;
#196 = PERSON_AND_ORGANIZATION ( #173, #175 ) ;
#197 = APPROVAL_PERSON_ORGANIZATION ( #2, #89, #41 ) ;
#198 = CALENDAR_DATE ( 2021, 24, 11 ) ;
#199 = DATE_AND_TIME ( #164, #167 ) ;
#200 = PLANE ( 'NONE',  #77 ) ;
#201 = EDGE_LOOP ( 'NONE', ( #49 ) ) ;
#202 = CC_DESIGN_DATE_AND_TIME_ASSIGNMENT ( #145, #28, ( #131 ) ) ;
#203 = EDGE_LOOP ( 'NONE', ( #184 ) ) ;
#204 = DIRECTION ( 'NONE',  ( -3.491481338843133355E-15, 1.224646799147353207E-16, -1.000000000000000000 ) ) ;
#205 = AXIS2_PLACEMENT_3D ( 'NONE', #100, #135, #191 ) ;
#206 = DIRECTION ( 'NONE',  ( 4.275831445896958607E-31, 1.000000000000000000, 1.224646799147352961E-16 ) ) ;
#207 = CARTESIAN_POINT ( 'NONE',  ( 1.326762908760390423E-13, 1.199999999999998845, 38.00000000000000000 ) ) ;
#208 = DIRECTION ( 'NONE',  ( -3.491481338843133355E-15, 1.224646799147353207E-16, -1.000000000000000000 ) ) ;
#209 = MANIFOLD_SOLID_BREP ( 'Corps-Déplacer/Copier1[2]', #48 ) ;
#210 = CARTESIAN_POINT ( 'NONE',  ( 7.474655745105531282E-15, -2.621756310461875793E-16, 2.140826491595164249 ) ) ;
#211 = ADVANCED_FACE ( 'NONE', ( #14, #35 ), #112, .F. ) ;
#212 = MECHANICAL_CONTEXT ( 'NONE', #139, 'mechanical' ) ;
#213 = CIRCLE ( 'NONE', #193, 1.499999999999996891 ) ;
#214 = PERSON_AND_ORGANIZATION ( #173, #175 ) ;
#215 = AXIS2_PLACEMENT_3D ( 'NONE', #224, #17, #219 ) ;
#216 = EDGE_CURVE ( 'NONE', #85, #85, #213, .T. ) ;
#217 = EDGE_LOOP ( 'NONE', ( #148 ) ) ;
#218 = APPROVAL_ROLE ( '' ) ;
#219 = DIRECTION ( 'NONE',  ( -4.275831445896959482E-31, -1.000000000000000000, -1.224646799147352961E-16 ) ) ;
#220 = PRODUCT_DEFINITION_FORMATION_WITH_SPECIFIED_SOURCE ( 'ANY', '', #146, .NOT_KNOWN. ) ;
#221 = CARTESIAN_POINT ( 'NONE',  ( 0.0000000000000000000, 0.0000000000000000000, 0.0000000000000000000 ) ) ;
#222 = VERTEX_POINT ( 'NONE', #207 ) ;
#223 = DIRECTION ( 'NONE',  ( 4.275831445896958607E-31, 1.000000000000000000, 1.224646799147353207E-16 ) ) ;
#224 = CARTESIAN_POINT ( 'NONE',  ( -2.137915722948479358E-32, 7.498798913309288894E-34, -6.123233995736766344E-18 ) ) ;
#225 = COORDINATED_UNIVERSAL_TIME_OFFSET ( 1, 0, .AHEAD. ) ;
#226 =( NAMED_UNIT ( * ) SI_UNIT ( $, .STERADIAN. ) SOLID_ANGLE_UNIT ( ) );
#227 = VERTEX_POINT ( 'NONE', #243 ) ;
#228 = APPROVAL_PERSON_ORGANIZATION ( #23, #38, #65 ) ;
#229 = DATE_AND_TIME ( #198, #143 ) ;
#230 = CARTESIAN_POINT ( 'NONE',  ( 2.367900757518973625E-14, 1.499999999999996225, 6.781937314617162649 ) ) ;
#231 = AXIS2_PLACEMENT_3D ( 'NONE', #99, #39, #155 ) ;
#232 = APPLICATION_CONTEXT ( 'configuration controlled 3d designs of mechanical parts and assemblies' ) ;
#233 = ORIENTED_EDGE ( 'NONE', *, *, #101, .F. ) ;
#234 = DATE_AND_TIME ( #26, #163 ) ;
#235 = EDGE_LOOP ( 'NONE', ( #74 ) ) ;
#236 = DIRECTION ( 'NONE',  ( -3.491481338843133355E-15, 1.224646799147353207E-16, -1.000000000000000000 ) ) ;
#237 = AXIS2_PLACEMENT_3D ( 'NONE', #154, #18, #190 ) ;
#238 = FACE_OUTER_BOUND ( 'NONE', #32, .T. ) ;
#239 = DIRECTION ( 'NONE',  ( -3.491481338843133355E-15, 1.224646799147353207E-16, -1.000000000000000000 ) ) ;
#240 = CARTESIAN_POINT ( 'NONE',  ( -2.137915722948479358E-32, 7.498798913309288894E-34, -6.123233995736766344E-18 ) ) ;
#241 = FACE_OUTER_BOUND ( 'NONE', #217, .T. ) ;
#242 = CC_DESIGN_DATE_AND_TIME_ASSIGNMENT ( #229, #123, ( #161 ) ) ;
#243 = CARTESIAN_POINT ( 'NONE',  ( 1.316288464743861212E-13, 1.499999999999998668, 37.69999999999999574 ) ) ;
ENDSEC;
END-ISO-10303-21;
