ISO-10303-21;
HEADER;
FILE_DESCRIPTION (( 'STEP AP203' ),
    '1' );
FILE_NAME ('959724.step',
    '2021-11-24T07:09:56',
    ( '' ),
    ( '' ),
    'SwSTEP 2.0',
    'SolidWorks 2019',
    '' );
FILE_SCHEMA (( 'CONFIG_CONTROL_DESIGN' ));
ENDSEC;

DATA;
#1 = FACE_OUTER_BOUND ( 'NONE', #36, .T. ) ;
#2 = APPROVAL ( #5, 'UNSPECIFIED' ) ;
#3 = DIRECTION ( 'NONE',  ( -3.491481338843133355E-15, 1.224646799147353207E-16, -1.000000000000000000 ) ) ;
#4 = VERTEX_POINT ( 'NONE', #81 ) ;
#5 = APPROVAL_STATUS ( 'not_yet_approved' ) ;
#6 = CARTESIAN_POINT ( 'NONE',  ( 1.326762908760390423E-13, 1.199999999999998845, 38.00000000000000000 ) ) ;
#7 = SECURITY_CLASSIFICATION ( '', '', #122 ) ;
#8 = LOCAL_TIME ( 8, 9, 55.00000000000000000, #69 ) ;
#9 = VERTEX_POINT ( 'NONE', #99 ) ;
#10 = ADVANCED_FACE ( 'NONE', ( #236 ), #68, .T. ) ;
#11 = APPROVAL_DATE_TIME ( #230, #2 ) ;
#12 = ORIENTED_EDGE ( 'NONE', *, *, #88, .F. ) ;
#13 = PRODUCT_RELATED_PRODUCT_CATEGORY ( 'detail', '', ( #152 ) ) ;
#14 = ORIENTED_EDGE ( 'NONE', *, *, #157, .T. ) ;
#15 = AXIS2_PLACEMENT_3D ( 'NONE', #22, #221, #94 ) ;
#16 = DIRECTION ( 'NONE',  ( 3.491481338843133355E-15, -1.224646799147353207E-16, 1.000000000000000000 ) ) ;
#17 = CARTESIAN_POINT ( 'NONE',  ( 1.326762908760390423E-13, 8.998558695971103225E-33, 38.00000000000000000 ) ) ;
#18 = APPROVAL_PERSON_ORGANIZATION ( #229, #2, #162 ) ;
#19 = DIRECTION ( 'NONE',  ( -3.491481338843133355E-15, 1.224646799147353207E-16, -1.000000000000000000 ) ) ;
#20 = AXIS2_PLACEMENT_3D ( 'NONE', #151, #209, #133 ) ;
#21 = CARTESIAN_POINT ( 'NONE',  ( 0.0000000000000000000, 0.0000000000000000000, 0.0000000000000000000 ) ) ;
#22 = CARTESIAN_POINT ( 'NONE',  ( 1.326762908760390423E-13, -4.653657836759941941E-15, 38.00000000000000000 ) ) ;
#23 = ADVANCED_FACE ( 'NONE', ( #189, #1 ), #134, .T. ) ;
#24 = CC_DESIGN_PERSON_AND_ORGANIZATION_ASSIGNMENT ( #177, #96, ( #152 ) ) ;
#25 = DATE_AND_TIME ( #226, #200 ) ;
#26 = CALENDAR_DATE ( 2021, 24, 11 ) ;
#27 = APPROVAL_PERSON_ORGANIZATION ( #129, #55, #30 ) ;
#28 = APPLICATION_PROTOCOL_DEFINITION ( 'international standard', 'config_control_design', 1994, #143 ) ;
#29 = DATE_TIME_ROLE ( 'classification_date' ) ;
#30 = APPROVAL_ROLE ( '' ) ;
#31 = EDGE_LOOP ( 'NONE', ( #12 ) ) ;
#32 = CIRCLE ( 'NONE', #58, 0.7500000000000000000 ) ;
#33 = PERSON_AND_ORGANIZATION_ROLE ( 'design_supplier' ) ;
#34 = ADVANCED_FACE ( 'NONE', ( #224, #54 ), #71, .F. ) ;
#35 = MANIFOLD_SOLID_BREP ( 'Corps-Déplacer/Copier1[2]', #47 ) ;
#36 = EDGE_LOOP ( 'NONE', ( #217 ) ) ;
#37 = ADVANCED_FACE ( 'NONE', ( #243, #87 ), #75, .T. ) ;
#38 = ORIENTED_EDGE ( 'NONE', *, *, #205, .T. ) ;
#39 = DIRECTION ( 'NONE',  ( 4.355100981429076768E-31, 1.000000000000000000, 1.224646799147353207E-16 ) ) ;
#40 = CARTESIAN_POINT ( 'NONE',  ( 7.751494846776102950E-15, 5.624099184981961240E-33, 2.220116361654243420 ) ) ;
#41 = CARTESIAN_POINT ( 'NONE',  ( 7.751494846776102950E-15, -2.718858396034536508E-16, 2.220116361654243420 ) ) ;
#42 = CIRCLE ( 'NONE', #180, 1.499999999999996891 ) ;
#43 = DIRECTION ( 'NONE',  ( -4.275831445896958607E-31, -1.000000000000000000, -1.224646799147353207E-16 ) ) ;
#44 = CARTESIAN_POINT ( 'NONE',  ( -1.710332578358783705E-32, 5.999039130647431458E-34, -4.898587196589413537E-18 ) ) ;
#45 = EDGE_CURVE ( 'NONE', #46, #46, #32, .T. ) ;
#46 = VERTEX_POINT ( 'NONE', #101 ) ;
#47 = CLOSED_SHELL ( 'NONE', ( #53, #194, #10 ) ) ;
#48 = CC_DESIGN_PERSON_AND_ORGANIZATION_ASSIGNMENT ( #145, #231, ( #7 ) ) ;
#49 = DIRECTION ( 'NONE',  ( 0.0000000000000000000, 0.0000000000000000000, 1.000000000000000000 ) ) ;
#50 = LOCAL_TIME ( 8, 9, 55.00000000000000000, #79 ) ;
#51 = EDGE_LOOP ( 'NONE', ( #14 ) ) ;
#52 = DIRECTION ( 'NONE',  ( -3.491481338843133355E-15, 1.224646799147353207E-16, -1.000000000000000000 ) ) ;
#53 = ADVANCED_FACE ( 'NONE', ( #118 ), #77, .F. ) ;
#54 = FACE_OUTER_BOUND ( 'NONE', #167, .T. ) ;
#55 = APPROVAL ( #163, 'UNSPECIFIED' ) ;
#56 = DIRECTION ( 'NONE',  ( -4.275831445896958607E-31, -1.000000000000000000, -1.224646799147353207E-16 ) ) ;
#57 = DESIGN_CONTEXT ( 'detailed design', #143, 'design' ) ;
#58 = AXIS2_PLACEMENT_3D ( 'NONE', #41, #74, #175 ) ;
#59 = DIRECTION ( 'NONE',  ( 4.275831445896958607E-31, 1.000000000000000000, 1.224646799147353207E-16 ) ) ;
#60 = CARTESIAN_POINT ( 'NONE',  ( 7.751494846776102950E-15, 5.624099184981961240E-33, 2.220116361654243420 ) ) ;
#61 = DIRECTION ( 'NONE',  ( 0.0000000000000000000, 1.000000000000000000, 0.0000000000000000000 ) ) ;
#62 = AXIS2_PLACEMENT_3D ( 'NONE', #115, #3, #169 ) ;
#63 = CARTESIAN_POINT ( 'NONE',  ( 0.0000000000000000000, 0.0000000000000000000, 0.0000000000000000000 ) ) ;
#64 = COORDINATED_UNIVERSAL_TIME_OFFSET ( 1, 0, .AHEAD. ) ;
#65 = EDGE_LOOP ( 'NONE', ( #165 ) ) ;
#66 = PRODUCT_DEFINITION ( 'UNKNOWN', '', #112, #57 ) ;
#67 = ADVANCED_FACE ( 'NONE', ( #154 ), #72, .F. ) ;
#68 = PLANE ( 'NONE',  #150 ) ;
#69 = COORDINATED_UNIVERSAL_TIME_OFFSET ( 1, 0, .AHEAD. ) ;
#70 = DIRECTION ( 'NONE',  ( -3.491481338843133355E-15, 1.224646799147353207E-16, -1.000000000000000000 ) ) ;
#71 = TOROIDAL_SURFACE ( 'NONE', #218, 8.750000000000000000, 8.000000000000000000 ) ;
#72 = PLANE ( 'NONE',  #242 ) ;
#73 = FACE_OUTER_BOUND ( 'NONE', #51, .T. ) ;
#74 = DIRECTION ( 'NONE',  ( -3.491481338843133355E-15, 1.224646799147353207E-16, -1.000000000000000000 ) ) ;
#75 = CONICAL_SURFACE ( 'NONE', #15, 1.200000000000003286, 0.7853981633974453924 ) ;
#76 = EDGE_CURVE ( 'NONE', #211, #211, #170, .T. ) ;
#77 = PLANE ( 'NONE',  #191 ) ;
#78 = APPROVAL_ROLE ( '' ) ;
#79 = COORDINATED_UNIVERSAL_TIME_OFFSET ( 1, 0, .AHEAD. ) ;
#80 = CIRCLE ( 'NONE', #148, 0.7500000000000000000 ) ;
#81 = CARTESIAN_POINT ( 'NONE',  ( 1.316288464743861212E-13, 1.499999999999998668, 37.69999999999999574 ) ) ;
#82 =( GEOMETRIC_REPRESENTATION_CONTEXT ( 3 ) GLOBAL_UNCERTAINTY_ASSIGNED_CONTEXT ( ( #171 ) ) GLOBAL_UNIT_ASSIGNED_CONTEXT ( ( #119, #120, #195 ) ) REPRESENTATION_CONTEXT ( 'NONE', 'WORKASPACE' ) );
#83 = CC_DESIGN_DATE_AND_TIME_ASSIGNMENT ( #102, #29, ( #7 ) ) ;
#84 = PERSON_AND_ORGANIZATION ( #146, #90 ) ;
#85 = EDGE_LOOP ( 'NONE', ( #147 ) ) ;
#86 = SHAPE_DEFINITION_REPRESENTATION ( #220, #174 ) ;
#87 = FACE_BOUND ( 'NONE', #185, .T. ) ;
#88 = EDGE_CURVE ( 'NONE', #196, #196, #187, .T. ) ;
#89 = DIRECTION ( 'NONE',  ( -3.491481338843133355E-15, 1.224646799147353207E-16, -1.000000000000000000 ) ) ;
#90 = ORGANIZATION ( 'UNSPECIFIED', 'UNSPECIFIED', '' ) ;
#91 = CIRCLE ( 'NONE', #159, 0.05000000000000000278 ) ;
#92 = DIRECTION ( 'NONE',  ( 0.0000000000000000000, 1.000000000000000000, 0.0000000000000000000 ) ) ;
#93 = DIRECTION ( 'NONE',  ( -3.491481338843133355E-15, 1.224646799147353207E-16, -1.000000000000000000 ) ) ;
#94 = DIRECTION ( 'NONE',  ( 0.0000000000000000000, 1.000000000000000000, 0.0000000000000000000 ) ) ;
#95 = PERSON_AND_ORGANIZATION ( #146, #90 ) ;
#96 = PERSON_AND_ORGANIZATION_ROLE ( 'design_owner' ) ;
#97 = DATE_AND_TIME ( #26, #98 ) ;
#98 = LOCAL_TIME ( 8, 9, 55.00000000000000000, #64 ) ;
#99 = CARTESIAN_POINT ( 'NONE',  ( 2.367900757518973625E-14, 1.499999999999996225, 6.781937314617162649 ) ) ;
#100 = CC_DESIGN_SECURITY_CLASSIFICATION ( #7, ( #112 ) ) ;
#101 = CARTESIAN_POINT ( 'NONE',  ( 7.751494846776102950E-15, 0.7499999999999996669, 2.220116361654243420 ) ) ;
#102 = DATE_AND_TIME ( #124, #8 ) ;
#103 = APPROVAL_DATE_TIME ( #202, #55 ) ;
#104 = ORIENTED_EDGE ( 'NONE', *, *, #234, .T. ) ;
#105 = AXIS2_PLACEMENT_3D ( 'NONE', #223, #136, #207 ) ;
#106 = PERSON_AND_ORGANIZATION ( #146, #90 ) ;
#107 = EDGE_LOOP ( 'NONE', ( #186 ) ) ;
#108 = APPROVAL_DATE_TIME ( #25, #184 ) ;
#109 = ORIENTED_EDGE ( 'NONE', *, *, #88, .T. ) ;
#110 = ADVANCED_FACE ( 'NONE', ( #222 ), #192, .F. ) ;
#111 = CARTESIAN_POINT ( 'NONE',  ( 7.751494846776102950E-15, -2.718858396034536508E-16, 2.220116361654243420 ) ) ;
#112 = PRODUCT_DEFINITION_FORMATION_WITH_SPECIFIED_SOURCE ( 'ANY', '', #152, .NOT_KNOWN. ) ;
#113 = MANIFOLD_SOLID_BREP ( 'Corps-Déplacer/Copier1[1]', #240 ) ;
#114 = AXIS2_PLACEMENT_3D ( 'NONE', #63, #49, #121 ) ;
#115 = CARTESIAN_POINT ( 'NONE',  ( 1.326762908760390423E-13, -4.653657836759941941E-15, 38.00000000000000000 ) ) ;
#116 = EDGE_CURVE ( 'NONE', #214, #214, #80, .T. ) ;
#117 = CARTESIAN_POINT ( 'NONE',  ( 1.316288464743861212E-13, -4.616918432785521081E-15, 37.69999999999999574 ) ) ;
#118 = FACE_OUTER_BOUND ( 'NONE', #130, .T. ) ;
#119 =( LENGTH_UNIT ( ) NAMED_UNIT ( * ) SI_UNIT ( .MILLI., .METRE. ) );
#120 =( NAMED_UNIT ( * ) PLANE_ANGLE_UNIT ( ) SI_UNIT ( $, .RADIAN. ) );
#121 = DIRECTION ( 'NONE',  ( 1.000000000000000000, 0.0000000000000000000, 0.0000000000000000000 ) ) ;
#122 = SECURITY_CLASSIFICATION_LEVEL ( 'unclassified' ) ;
#123 = PERSON_AND_ORGANIZATION ( #146, #90 ) ;
#124 = CALENDAR_DATE ( 2021, 24, 11 ) ;
#125 = LOCAL_TIME ( 8, 9, 55.00000000000000000, #182 ) ;
#126 = AXIS2_PLACEMENT_3D ( 'NONE', #21, #93, #173 ) ;
#127 = CC_DESIGN_PERSON_AND_ORGANIZATION_ASSIGNMENT ( #106, #199, ( #112 ) ) ;
#128 = EDGE_LOOP ( 'NONE', ( #104 ) ) ;
#129 = PERSON_AND_ORGANIZATION ( #146, #90 ) ;
#130 = EDGE_LOOP ( 'NONE', ( #38 ) ) ;
#131 = APPLICATION_CONTEXT ( 'configuration controlled 3d designs of mechanical parts and assemblies' ) ;
#132 = CARTESIAN_POINT ( 'NONE',  ( -8.551662891793918527E-33, 2.999519565323715729E-34, -2.449293598294706769E-18 ) ) ;
#133 = DIRECTION ( 'NONE',  ( 0.0000000000000000000, 1.000000000000000000, 0.0000000000000000000 ) ) ;
#134 = CYLINDRICAL_SURFACE ( 'NONE', #105, 0.7500000000000005551 ) ;
#135 = AXIS2_PLACEMENT_3D ( 'NONE', #60, #206, #43 ) ;
#136 = DIRECTION ( 'NONE',  ( -3.491481338843133355E-15, 1.224646799147353207E-16, -1.000000000000000000 ) ) ;
#137 = FACE_OUTER_BOUND ( 'NONE', #85, .T. ) ;
#138 = CARTESIAN_POINT ( 'NONE',  ( 7.751494846776102950E-15, 0.7499999999999996669, 2.220116361654243420 ) ) ;
#139 = MECHANICAL_CONTEXT ( 'NONE', #131, 'mechanical' ) ;
#140 = AXIS2_PLACEMENT_3D ( 'NONE', #117, #19, #92 ) ;
#141 = CALENDAR_DATE ( 2021, 24, 11 ) ;
#142 = DATE_TIME_ROLE ( 'creation_date' ) ;
#143 = APPLICATION_CONTEXT ( 'configuration controlled 3d designs of mechanical parts and assemblies' ) ;
#144 = ORIENTED_EDGE ( 'NONE', *, *, #205, .F. ) ;
#145 = PERSON_AND_ORGANIZATION ( #146, #90 ) ;
#146 = PERSON ( 'UNSPECIFIED', 'UNSPECIFIED', 'UNSPECIFIED', ('UNSPECIFIED'), ('UNSPECIFIED'), ('UNSPECIFIED') ) ;
#147 = ORIENTED_EDGE ( 'NONE', *, *, #116, .T. ) ;
#148 = AXIS2_PLACEMENT_3D ( 'NONE', #111, #204, #190 ) ;
#149 = CC_DESIGN_DATE_AND_TIME_ASSIGNMENT ( #97, #142, ( #66 ) ) ;
#150 = AXIS2_PLACEMENT_3D ( 'NONE', #40, #239, #155 ) ;
#151 = CARTESIAN_POINT ( 'NONE',  ( 1.187103655206665183E-14, -4.163799117101000559E-16, 3.399999999999999911 ) ) ;
#152 = PRODUCT ( '959724', '959724', '', ( #139 ) ) ;
#153 = CYLINDRICAL_SURFACE ( 'NONE', #126, 1.500000000000000000 ) ;
#154 = FACE_OUTER_BOUND ( 'NONE', #31, .T. ) ;
#155 = DIRECTION ( 'NONE',  ( -4.275831445896958607E-31, -1.000000000000000000, -1.224646799147353207E-16 ) ) ;
#156 = COORDINATED_UNIVERSAL_TIME_OFFSET ( 1, 0, .AHEAD. ) ;
#157 = EDGE_CURVE ( 'NONE', #4, #4, #198, .T. ) ;
#158 = APPROVAL_STATUS ( 'not_yet_approved' ) ;
#159 = AXIS2_PLACEMENT_3D ( 'NONE', #238, #70, #176 ) ;
#160 = CONICAL_SURFACE ( 'NONE', #235, 0.05000000000000000278, 0.3054326190990083734 ) ;
#161 = DIRECTION ( 'NONE',  ( -3.491481338843133355E-15, 1.224646799147353207E-16, -1.000000000000000000 ) ) ;
#162 = APPROVAL_ROLE ( '' ) ;
#163 = APPROVAL_STATUS ( 'not_yet_approved' ) ;
#164 = EDGE_LOOP ( 'NONE', ( #237 ) ) ;
#165 = ORIENTED_EDGE ( 'NONE', *, *, #76, .T. ) ;
#166 = EDGE_LOOP ( 'NONE', ( #201 ) ) ;
#167 = EDGE_LOOP ( 'NONE', ( #183 ) ) ;
#168 = DIRECTION ( 'NONE',  ( -4.275831445896958607E-31, -1.000000000000000000, -1.224646799147353207E-16 ) ) ;
#169 = DIRECTION ( 'NONE',  ( 0.0000000000000000000, 1.000000000000000000, 0.0000000000000000000 ) ) ;
#170 = CIRCLE ( 'NONE', #20, 0.7500000000000011102 ) ;
#171 = UNCERTAINTY_MEASURE_WITH_UNIT (LENGTH_MEASURE( 1.000000000000000082E-05 ), #119, 'distance_accuracy_value', 'NONE');
#172 = FACE_OUTER_BOUND ( 'NONE', #164, .T. ) ;
#173 = DIRECTION ( 'NONE',  ( 4.275831445896959482E-31, 1.000000000000000000, 1.224646799147353207E-16 ) ) ;
#174 = ADVANCED_BREP_SHAPE_REPRESENTATION ( '959724', ( #113, #35, #114 ), #82 ) ;
#175 = DIRECTION ( 'NONE',  ( 0.0000000000000000000, 1.000000000000000000, 0.0000000000000000000 ) ) ;
#176 = DIRECTION ( 'NONE',  ( 4.275831445896958607E-31, 1.000000000000000000, 1.224646799147353207E-16 ) ) ;
#177 = PERSON_AND_ORGANIZATION ( #146, #90 ) ;
#178 = CARTESIAN_POINT ( 'NONE',  ( 4.275831445896955842E-33, 0.05000000000000000278, 1.224646799147352614E-18 ) ) ;
#179 = CARTESIAN_POINT ( 'NONE',  ( 1.187103655206665183E-14, 0.7500000000000006661, 3.399999999999999911 ) ) ;
#180 = AXIS2_PLACEMENT_3D ( 'NONE', #181, #161, #61 ) ;
#181 = CARTESIAN_POINT ( 'NONE',  ( 2.367900757518973625E-14, -8.305477824363904586E-16, 6.781937314617162649 ) ) ;
#182 = COORDINATED_UNIVERSAL_TIME_OFFSET ( 1, 0, .AHEAD. ) ;
#183 = ORIENTED_EDGE ( 'NONE', *, *, #76, .F. ) ;
#184 = APPROVAL ( #158, 'UNSPECIFIED' ) ;
#185 = EDGE_LOOP ( 'NONE', ( #109 ) ) ;
#186 = ORIENTED_EDGE ( 'NONE', *, *, #116, .F. ) ;
#187 = CIRCLE ( 'NONE', #62, 1.200000000000003286 ) ;
#188 = ADVANCED_FACE ( 'NONE', ( #172, #73 ), #153, .T. ) ;
#189 = FACE_OUTER_BOUND ( 'NONE', #65, .T. ) ;
#190 = DIRECTION ( 'NONE',  ( 0.0000000000000000000, 1.000000000000000000, 0.0000000000000000000 ) ) ;
#191 = AXIS2_PLACEMENT_3D ( 'NONE', #132, #225, #56 ) ;
#192 = PLANE ( 'NONE',  #135 ) ;
#193 = CARTESIAN_POINT ( 'NONE',  ( 1.187103655206665183E-14, 0.0000000000000000000, 3.399999999999999911 ) ) ;
#194 = ADVANCED_FACE ( 'NONE', ( #137, #210 ), #160, .T. ) ;
#195 =( NAMED_UNIT ( * ) SI_UNIT ( $, .STERADIAN. ) SOLID_ANGLE_UNIT ( ) );
#196 = VERTEX_POINT ( 'NONE', #6 ) ;
#197 = PERSON_AND_ORGANIZATION_ROLE ( 'creator' ) ;
#198 = CIRCLE ( 'NONE', #140, 1.500000000000003331 ) ;
#199 = PERSON_AND_ORGANIZATION_ROLE ( 'creator' ) ;
#200 = LOCAL_TIME ( 8, 9, 55.00000000000000000, #156 ) ;
#201 = ORIENTED_EDGE ( 'NONE', *, *, #157, .F. ) ;
#202 = DATE_AND_TIME ( #216, #125 ) ;
#203 = EDGE_LOOP ( 'NONE', ( #233 ) ) ;
#204 = DIRECTION ( 'NONE',  ( -3.491481338843133355E-15, 1.224646799147353207E-16, -1.000000000000000000 ) ) ;
#205 = EDGE_CURVE ( 'NONE', #213, #213, #91, .T. ) ;
#206 = DIRECTION ( 'NONE',  ( 3.491481338843133355E-15, -1.224646799147353207E-16, 1.000000000000000000 ) ) ;
#207 = DIRECTION ( 'NONE',  ( 4.275831445896958607E-31, 1.000000000000000000, 1.224646799147353207E-16 ) ) ;
#208 = CC_DESIGN_APPROVAL ( #55, ( #7 ) ) ;
#209 = DIRECTION ( 'NONE',  ( -3.491481338843133355E-15, 1.224646799147353207E-16, -1.000000000000000000 ) ) ;
#210 = FACE_BOUND ( 'NONE', #232, .T. ) ;
#211 = VERTEX_POINT ( 'NONE', #179 ) ;
#212 = APPLICATION_PROTOCOL_DEFINITION ( 'international standard', 'config_control_design', 1994, #131 ) ;
#213 = VERTEX_POINT ( 'NONE', #178 ) ;
#214 = VERTEX_POINT ( 'NONE', #138 ) ;
#215 = CC_DESIGN_PERSON_AND_ORGANIZATION_ASSIGNMENT ( #123, #33, ( #112 ) ) ;
#216 = CALENDAR_DATE ( 2021, 24, 11 ) ;
#217 = ORIENTED_EDGE ( 'NONE', *, *, #45, .F. ) ;
#218 = AXIS2_PLACEMENT_3D ( 'NONE', #193, #52, #39 ) ;
#219 = CC_DESIGN_APPROVAL ( #184, ( #112 ) ) ;
#220 = PRODUCT_DEFINITION_SHAPE ( 'NONE', 'NONE',  #66 ) ;
#221 = DIRECTION ( 'NONE',  ( -3.491481338843133355E-15, 1.224646799147353207E-16, -1.000000000000000000 ) ) ;
#222 = FACE_OUTER_BOUND ( 'NONE', #203, .T. ) ;
#223 = CARTESIAN_POINT ( 'NONE',  ( 0.0000000000000000000, 0.0000000000000000000, 0.0000000000000000000 ) ) ;
#224 = FACE_OUTER_BOUND ( 'NONE', #128, .T. ) ;
#225 = DIRECTION ( 'NONE',  ( 3.491481338843133355E-15, -1.224646799147353207E-16, 1.000000000000000000 ) ) ;
#226 = CALENDAR_DATE ( 2021, 24, 11 ) ;
#227 = APPROVAL_PERSON_ORGANIZATION ( #95, #184, #78 ) ;
#228 = CC_DESIGN_APPROVAL ( #2, ( #66 ) ) ;
#229 = PERSON_AND_ORGANIZATION ( #146, #90 ) ;
#230 = DATE_AND_TIME ( #141, #50 ) ;
#231 = PERSON_AND_ORGANIZATION_ROLE ( 'classification_officer' ) ;
#232 = EDGE_LOOP ( 'NONE', ( #144 ) ) ;
#233 = ORIENTED_EDGE ( 'NONE', *, *, #45, .T. ) ;
#234 = EDGE_CURVE ( 'NONE', #9, #9, #42, .T. ) ;
#235 = AXIS2_PLACEMENT_3D ( 'NONE', #44, #16, #168 ) ;
#236 = FACE_OUTER_BOUND ( 'NONE', #107, .T. ) ;
#237 = ORIENTED_EDGE ( 'NONE', *, *, #234, .F. ) ;
#238 = CARTESIAN_POINT ( 'NONE',  ( -1.710332578358783705E-32, 5.999039130647431458E-34, -4.898587196589413537E-18 ) ) ;
#239 = DIRECTION ( 'NONE',  ( 3.491481338843133355E-15, -1.224646799147353207E-16, 1.000000000000000000 ) ) ;
#240 = CLOSED_SHELL ( 'NONE', ( #110, #23, #34, #188, #37, #67 ) ) ;
#241 = CC_DESIGN_PERSON_AND_ORGANIZATION_ASSIGNMENT ( #84, #197, ( #66 ) ) ;
#242 = AXIS2_PLACEMENT_3D ( 'NONE', #17, #89, #59 ) ;
#243 = FACE_OUTER_BOUND ( 'NONE', #166, .T. ) ;
ENDSEC;
END-ISO-10303-21;
