ISO-10303-21;
HEADER;
FILE_DESCRIPTION (( 'STEP AP203' ),
    '1' );
FILE_NAME ('959722.step',
    '2021-11-24T07:09:54',
    ( '' ),
    ( '' ),
    'SwSTEP 2.0',
    'SolidWorks 2019',
    '' );
FILE_SCHEMA (( 'CONFIG_CONTROL_DESIGN' ));
ENDSEC;

DATA;
#1 = DESIGN_CONTEXT ( 'detailed design', #186, 'design' ) ;
#2 = EDGE_LOOP ( 'NONE', ( #221 ) ) ;
#3 = DIRECTION ( 'NONE',  ( -4.275831445896957731E-31, -1.000000000000000000, -1.224646799147353454E-16 ) ) ;
#4 = VERTEX_POINT ( 'NONE', #210 ) ;
#5 = EDGE_CURVE ( 'NONE', #170, #170, #21, .T. ) ;
#6 = APPROVAL_PERSON_ORGANIZATION ( #136, #122, #49 ) ;
#7 = COORDINATED_UNIVERSAL_TIME_OFFSET ( 1, 0, .AHEAD. ) ;
#8 = DIRECTION ( 'NONE',  ( 4.275831445896958607E-31, 1.000000000000000000, 1.224646799147353207E-16 ) ) ;
#9 = DIRECTION ( 'NONE',  ( -3.491481338843133355E-15, 1.224646799147353207E-16, -1.000000000000000000 ) ) ;
#10 = APPROVAL_STATUS ( 'not_yet_approved' ) ;
#11 = AXIS2_PLACEMENT_3D ( 'NONE', #194, #187, #102 ) ;
#12 = DATE_AND_TIME ( #86, #227 ) ;
#13 = COORDINATED_UNIVERSAL_TIME_OFFSET ( 1, 0, .AHEAD. ) ;
#14 = ORIENTED_EDGE ( 'NONE', *, *, #94, .T. ) ;
#15 = ORIENTED_EDGE ( 'NONE', *, *, #112, .F. ) ;
#16 = APPROVAL_PERSON_ORGANIZATION ( #139, #135, #108 ) ;
#17 = ORIENTED_EDGE ( 'NONE', *, *, #81, .F. ) ;
#18 = FACE_OUTER_BOUND ( 'NONE', #109, .T. ) ;
#19 = CIRCLE ( 'NONE', #158, 1.500000000000003331 ) ;
#20 = CLOSED_SHELL ( 'NONE', ( #208, #69, #53, #31, #220, #200 ) ) ;
#21 = CIRCLE ( 'NONE', #150, 0.7500000000000003331 ) ;
#22 = DIRECTION ( 'NONE',  ( -3.491481338843133355E-15, 1.224646799147353207E-16, -1.000000000000000000 ) ) ;
#23 = ADVANCED_FACE ( 'NONE', ( #56 ), #58, .F. ) ;
#24 = VERTEX_POINT ( 'NONE', #99 ) ;
#25 = LOCAL_TIME ( 8, 9, 54.00000000000000000, #185 ) ;
#26 = AXIS2_PLACEMENT_3D ( 'NONE', #214, #138, #188 ) ;
#27 = DIRECTION ( 'NONE',  ( 4.275831445896957731E-31, 1.000000000000000000, 1.224646799147353454E-16 ) ) ;
#28 = CC_DESIGN_PERSON_AND_ORGANIZATION_ASSIGNMENT ( #192, #156, ( #179 ) ) ;
#29 = PLANE ( 'NONE',  #101 ) ;
#30 = PERSON_AND_ORGANIZATION ( #124, #114 ) ;
#31 = ADVANCED_FACE ( 'NONE', ( #132, #113 ), #223, .T. ) ;
#32 = PERSON_AND_ORGANIZATION_ROLE ( 'creator' ) ;
#33 = EDGE_LOOP ( 'NONE', ( #239 ) ) ;
#34 = ORIENTED_EDGE ( 'NONE', *, *, #117, .T. ) ;
#35 = AXIS2_PLACEMENT_3D ( 'NONE', #88, #47, #213 ) ;
#36 = DIRECTION ( 'NONE',  ( 0.0000000000000000000, 1.000000000000000000, 0.0000000000000000000 ) ) ;
#37 = DIRECTION ( 'NONE',  ( -4.275831445896958607E-31, -1.000000000000000000, -1.224646799147353207E-16 ) ) ;
#38 = ADVANCED_FACE ( 'NONE', ( #205, #39 ), #152, .T. ) ;
#39 = FACE_BOUND ( 'NONE', #129, .T. ) ;
#40 = EDGE_CURVE ( 'NONE', #167, #167, #84, .T. ) ;
#41 = PRODUCT_DEFINITION_SHAPE ( 'NONE', 'NONE',  #241 ) ;
#42 = VERTEX_POINT ( 'NONE', #118 ) ;
#43 = DATE_AND_TIME ( #218, #25 ) ;
#44 = FACE_OUTER_BOUND ( 'NONE', #2, .T. ) ;
#45 = COORDINATED_UNIVERSAL_TIME_OFFSET ( 1, 0, .AHEAD. ) ;
#46 = CC_DESIGN_DATE_AND_TIME_ASSIGNMENT ( #236, #72, ( #179 ) ) ;
#47 = DIRECTION ( 'NONE',  ( -3.491481338843133355E-15, 1.224646799147353207E-16, -1.000000000000000000 ) ) ;
#48 = PLANE ( 'NONE',  #133 ) ;
#49 = APPROVAL_ROLE ( '' ) ;
#50 = PRODUCT_DEFINITION_FORMATION_WITH_SPECIFIED_SOURCE ( 'ANY', '', #226, .NOT_KNOWN. ) ;
#51 = DIRECTION ( 'NONE',  ( 0.0000000000000000000, 1.000000000000000000, 0.0000000000000000000 ) ) ;
#52 = EDGE_LOOP ( 'NONE', ( #242 ) ) ;
#53 = ADVANCED_FACE ( 'NONE', ( #18, #148 ), #224, .F. ) ;
#54 = EDGE_LOOP ( 'NONE', ( #15 ) ) ;
#55 = CIRCLE ( 'NONE', #240, 0.02499999999999999792 ) ;
#56 = FACE_OUTER_BOUND ( 'NONE', #52, .T. ) ;
#57 = AXIS2_PLACEMENT_3D ( 'NONE', #146, #83, #36 ) ;
#58 = PLANE ( 'NONE',  #67 ) ;
#59 = AXIS2_PLACEMENT_3D ( 'NONE', #197, #176, #173 ) ;
#60 = DIRECTION ( 'NONE',  ( 3.491481338843133355E-15, -1.224646799147353207E-16, 1.000000000000000000 ) ) ;
#61 = CARTESIAN_POINT ( 'NONE',  ( 1.187103655206665183E-14, 0.7500000000000006661, 3.399999999999999911 ) ) ;
#62 = CARTESIAN_POINT ( 'NONE',  ( 8.028333948446680929E-15, 0.7500000000000000000, 2.299406231713323923 ) ) ;
#63 = CALENDAR_DATE ( 2021, 24, 11 ) ;
#64 = FACE_BOUND ( 'NONE', #199, .T. ) ;
#65 = DIRECTION ( 'NONE',  ( 0.0000000000000000000, 1.000000000000000000, 0.0000000000000000000 ) ) ;
#66 = AXIS2_PLACEMENT_3D ( 'NONE', #174, #103, #8 ) ;
#67 = AXIS2_PLACEMENT_3D ( 'NONE', #178, #98, #37 ) ;
#68 = PERSON_AND_ORGANIZATION ( #124, #114 ) ;
#69 = ADVANCED_FACE ( 'NONE', ( #134, #80 ), #237, .T. ) ;
#70 = SECURITY_CLASSIFICATION_LEVEL ( 'unclassified' ) ;
#71 = DIRECTION ( 'NONE',  ( 4.275831445896958607E-31, 1.000000000000000000, 1.224646799147353207E-16 ) ) ;
#72 = DATE_TIME_ROLE ( 'classification_date' ) ;
#73 = CARTESIAN_POINT ( 'NONE',  ( 1.326762908760390423E-13, -4.653657836759941941E-15, 38.00000000000000000 ) ) ;
#74 = APPROVAL_DATE_TIME ( #238, #135 ) ;
#75 = PRODUCT_RELATED_PRODUCT_CATEGORY ( 'detail', '', ( #226 ) ) ;
#76 = EDGE_LOOP ( 'NONE', ( #219 ) ) ;
#77 = CARTESIAN_POINT ( 'NONE',  ( 8.028333948446680929E-15, 0.7500000000000000000, 2.299406231713323923 ) ) ;
#78 = EDGE_LOOP ( 'NONE', ( #201 ) ) ;
#79 = AXIS2_PLACEMENT_3D ( 'NONE', #164, #60, #3 ) ;
#80 = FACE_OUTER_BOUND ( 'NONE', #76, .T. ) ;
#81 = EDGE_CURVE ( 'NONE', #24, #24, #55, .T. ) ;
#82 = DIRECTION ( 'NONE',  ( -3.491481338843133355E-15, 1.224646799147353207E-16, -1.000000000000000000 ) ) ;
#83 = DIRECTION ( 'NONE',  ( -3.491481338843133355E-15, 1.224646799147353207E-16, -1.000000000000000000 ) ) ;
#84 = CIRCLE ( 'NONE', #57, 0.7500000000000003331 ) ;
#85 = CC_DESIGN_APPROVAL ( #135, ( #179 ) ) ;
#86 = CALENDAR_DATE ( 2021, 24, 11 ) ;
#87 = CARTESIAN_POINT ( 'NONE',  ( 1.316288464743861212E-13, -4.616918432785521081E-15, 37.69999999999999574 ) ) ;
#88 = CARTESIAN_POINT ( 'NONE',  ( 1.326762908760390423E-13, -4.653657836759941941E-15, 38.00000000000000000 ) ) ;
#89 = DIRECTION ( 'NONE',  ( -3.491481338843133355E-15, 1.224646799147353207E-16, -1.000000000000000000 ) ) ;
#90 = LOCAL_TIME ( 8, 9, 54.00000000000000000, #45 ) ;
#91 = PERSON_AND_ORGANIZATION ( #124, #114 ) ;
#92 = DIRECTION ( 'NONE',  ( -3.491481338843133355E-15, 1.224646799147353207E-16, -1.000000000000000000 ) ) ;
#93 = PERSON_AND_ORGANIZATION_ROLE ( 'design_supplier' ) ;
#94 = EDGE_CURVE ( 'NONE', #151, #151, #149, .T. ) ;
#95 = AXIS2_PLACEMENT_3D ( 'NONE', #207, #182, #222 ) ;
#96 = EDGE_LOOP ( 'NONE', ( #161 ) ) ;
#97 = UNCERTAINTY_MEASURE_WITH_UNIT (LENGTH_MEASURE( 1.000000000000000082E-05 ), #166, 'distance_accuracy_value', 'NONE');
#98 = DIRECTION ( 'NONE',  ( 3.491481338843133355E-15, -1.224646799147353207E-16, 1.000000000000000000 ) ) ;
#99 = CARTESIAN_POINT ( 'NONE',  ( -2.137915722948479905E-32, 0.02499999999999999792, -6.123233995736766344E-18 ) ) ;
#100 = CIRCLE ( 'NONE', #120, 0.7500000000000011102 ) ;
#101 = AXIS2_PLACEMENT_3D ( 'NONE', #195, #9, #71 ) ;
#102 = DIRECTION ( 'NONE',  ( 0.0000000000000000000, 1.000000000000000000, 0.0000000000000000000 ) ) ;
#103 = DIRECTION ( 'NONE',  ( -3.491481338843133355E-15, 1.224646799147353207E-16, -1.000000000000000000 ) ) ;
#104 = CALENDAR_DATE ( 2021, 24, 11 ) ;
#105 = DIRECTION ( 'NONE',  ( -3.491481338843133355E-15, 1.224646799147353207E-16, -1.000000000000000000 ) ) ;
#106 = MANIFOLD_SOLID_BREP ( 'Corps-Déplacer/Copier1[2]', #196 ) ;
#107 = APPROVAL_STATUS ( 'not_yet_approved' ) ;
#108 = APPROVAL_ROLE ( '' ) ;
#109 = EDGE_LOOP ( 'NONE', ( #144 ) ) ;
#110 = EDGE_LOOP ( 'NONE', ( #143 ) ) ;
#111 = CC_DESIGN_PERSON_AND_ORGANIZATION_ASSIGNMENT ( #30, #157, ( #226 ) ) ;
#112 = EDGE_CURVE ( 'NONE', #42, #42, #19, .T. ) ;
#113 = FACE_OUTER_BOUND ( 'NONE', #110, .T. ) ;
#114 = ORGANIZATION ( 'UNSPECIFIED', 'UNSPECIFIED', '' ) ;
#115 = DIRECTION ( 'NONE',  ( 0.0000000000000000000, 1.000000000000000000, 0.0000000000000000000 ) ) ;
#116 =( NAMED_UNIT ( * ) PLANE_ANGLE_UNIT ( ) SI_UNIT ( $, .RADIAN. ) );
#117 = EDGE_CURVE ( 'NONE', #229, #229, #100, .T. ) ;
#118 = CARTESIAN_POINT ( 'NONE',  ( 1.316288464743861212E-13, 1.499999999999998668, 37.69999999999999574 ) ) ;
#119 = SHAPE_DEFINITION_REPRESENTATION ( #41, #162 ) ;
#120 = AXIS2_PLACEMENT_3D ( 'NONE', #235, #89, #51 ) ;
#121 = CALENDAR_DATE ( 2021, 24, 11 ) ;
#122 = APPROVAL ( #10, 'UNSPECIFIED' ) ;
#123 = DATE_AND_TIME ( #104, #141 ) ;
#124 = PERSON ( 'UNSPECIFIED', 'UNSPECIFIED', 'UNSPECIFIED', ('UNSPECIFIED'), ('UNSPECIFIED'), ('UNSPECIFIED') ) ;
#125 = CARTESIAN_POINT ( 'NONE',  ( -3.206873584422719174E-32, 1.124819836996393206E-33, -9.184850993605148746E-18 ) ) ;
#126 = APPROVAL_STATUS ( 'not_yet_approved' ) ;
#127 = ORIENTED_EDGE ( 'NONE', *, *, #117, .F. ) ;
#128 = CC_DESIGN_PERSON_AND_ORGANIZATION_ASSIGNMENT ( #168, #216, ( #241 ) ) ;
#129 = EDGE_LOOP ( 'NONE', ( #17 ) ) ;
#130 =( GEOMETRIC_REPRESENTATION_CONTEXT ( 3 ) GLOBAL_UNCERTAINTY_ASSIGNED_CONTEXT ( ( #97 ) ) GLOBAL_UNIT_ASSIGNED_CONTEXT ( ( #166, #116, #243 ) ) REPRESENTATION_CONTEXT ( 'NONE', 'WORKASPACE' ) );
#131 = DIRECTION ( 'NONE',  ( 4.275831445896959482E-31, 1.000000000000000000, 1.224646799147353207E-16 ) ) ;
#132 = FACE_OUTER_BOUND ( 'NONE', #33, .T. ) ;
#133 = AXIS2_PLACEMENT_3D ( 'NONE', #154, #231, #228 ) ;
#134 = FACE_OUTER_BOUND ( 'NONE', #140, .T. ) ;
#135 = APPROVAL ( #126, 'UNSPECIFIED' ) ;
#136 = PERSON_AND_ORGANIZATION ( #124, #114 ) ;
#137 = APPROVAL_DATE_TIME ( #12, #122 ) ;
#138 = DIRECTION ( 'NONE',  ( 3.491481338843133355E-15, -1.224646799147353207E-16, 1.000000000000000000 ) ) ;
#139 = PERSON_AND_ORGANIZATION ( #124, #114 ) ;
#140 = EDGE_LOOP ( 'NONE', ( #34 ) ) ;
#141 = LOCAL_TIME ( 8, 9, 54.00000000000000000, #212 ) ;
#142 = APPLICATION_PROTOCOL_DEFINITION ( 'international standard', 'config_control_design', 1994, #169 ) ;
#143 = ORIENTED_EDGE ( 'NONE', *, *, #112, .T. ) ;
#144 = ORIENTED_EDGE ( 'NONE', *, *, #225, .T. ) ;
#145 = CC_DESIGN_APPROVAL ( #122, ( #50 ) ) ;
#146 = CARTESIAN_POINT ( 'NONE',  ( 8.028333948446680929E-15, -2.815960481607199196E-16, 2.299406231713323923 ) ) ;
#147 = ADVANCED_FACE ( 'NONE', ( #44 ), #172, .T. ) ;
#148 = FACE_OUTER_BOUND ( 'NONE', #177, .T. ) ;
#149 = CIRCLE ( 'NONE', #204, 1.200000000000003286 ) ;
#150 = AXIS2_PLACEMENT_3D ( 'NONE', #180, #82, #115 ) ;
#151 = VERTEX_POINT ( 'NONE', #211 ) ;
#152 = CONICAL_SURFACE ( 'NONE', #79, 0.02499999999999999792, 0.3054326190990084844 ) ;
#153 = PERSON_AND_ORGANIZATION ( #124, #114 ) ;
#154 = CARTESIAN_POINT ( 'NONE',  ( 8.028333948446679351E-15, 5.624099184981963977E-33, 2.299406231713323479 ) ) ;
#155 = DIRECTION ( 'NONE',  ( -3.491481338843133355E-15, 1.224646799147353207E-16, -1.000000000000000000 ) ) ;
#156 = PERSON_AND_ORGANIZATION_ROLE ( 'classification_officer' ) ;
#157 = PERSON_AND_ORGANIZATION_ROLE ( 'design_owner' ) ;
#158 = AXIS2_PLACEMENT_3D ( 'NONE', #87, #155, #65 ) ;
#159 = CC_DESIGN_DATE_AND_TIME_ASSIGNMENT ( #43, #230, ( #241 ) ) ;
#160 = ORIENTED_EDGE ( 'NONE', *, *, #5, .T. ) ;
#161 = ORIENTED_EDGE ( 'NONE', *, *, #94, .F. ) ;
#162 = ADVANCED_BREP_SHAPE_REPRESENTATION ( '959722', ( #181, #106, #59 ), #130 ) ;
#163 = APPROVAL ( #107, 'UNSPECIFIED' ) ;
#164 = CARTESIAN_POINT ( 'NONE',  ( -3.206873584422719174E-32, 1.124819836996393206E-33, -9.184850993605148746E-18 ) ) ;
#165 = CONICAL_SURFACE ( 'NONE', #35, 1.200000000000003286, 0.7853981633974453924 ) ;
#166 =( LENGTH_UNIT ( ) NAMED_UNIT ( * ) SI_UNIT ( .MILLI., .METRE. ) );
#167 = VERTEX_POINT ( 'NONE', #62 ) ;
#168 = PERSON_AND_ORGANIZATION ( #124, #114 ) ;
#169 = APPLICATION_CONTEXT ( 'configuration controlled 3d designs of mechanical parts and assemblies' ) ;
#170 = VERTEX_POINT ( 'NONE', #77 ) ;
#171 = APPROVAL_ROLE ( '' ) ;
#172 = PLANE ( 'NONE',  #26 ) ;
#173 = DIRECTION ( 'NONE',  ( 1.000000000000000000, 0.0000000000000000000, 0.0000000000000000000 ) ) ;
#174 = CARTESIAN_POINT ( 'NONE',  ( 0.0000000000000000000, 0.0000000000000000000, 0.0000000000000000000 ) ) ;
#175 = APPROVAL_DATE_TIME ( #123, #163 ) ;
#176 = DIRECTION ( 'NONE',  ( 0.0000000000000000000, 0.0000000000000000000, 1.000000000000000000 ) ) ;
#177 = EDGE_LOOP ( 'NONE', ( #127 ) ) ;
#178 = CARTESIAN_POINT ( 'NONE',  ( -1.603436792211359587E-32, 5.624099184981966029E-34, -4.592425496802574373E-18 ) ) ;
#179 = SECURITY_CLASSIFICATION ( '', '', #70 ) ;
#180 = CARTESIAN_POINT ( 'NONE',  ( 8.028333948446680929E-15, -2.815960481607199196E-16, 2.299406231713323923 ) ) ;
#181 = MANIFOLD_SOLID_BREP ( 'Corps-Déplacer/Copier1[1]', #20 ) ;
#182 = DIRECTION ( 'NONE',  ( -3.491481338843133355E-15, 1.224646799147353207E-16, -1.000000000000000000 ) ) ;
#183 = CC_DESIGN_PERSON_AND_ORGANIZATION_ASSIGNMENT ( #153, #93, ( #50 ) ) ;
#184 = CIRCLE ( 'NONE', #11, 1.499999999999996891 ) ;
#185 = COORDINATED_UNIVERSAL_TIME_OFFSET ( 1, 0, .AHEAD. ) ;
#186 = APPLICATION_CONTEXT ( 'configuration controlled 3d designs of mechanical parts and assemblies' ) ;
#187 = DIRECTION ( 'NONE',  ( -3.491481338843133355E-15, 1.224646799147353207E-16, -1.000000000000000000 ) ) ;
#188 = DIRECTION ( 'NONE',  ( -4.275831445896958607E-31, -1.000000000000000000, -1.224646799147353207E-16 ) ) ;
#189 = CC_DESIGN_PERSON_AND_ORGANIZATION_ASSIGNMENT ( #91, #32, ( #50 ) ) ;
#190 = CC_DESIGN_APPROVAL ( #163, ( #241 ) ) ;
#191 = FACE_OUTER_BOUND ( 'NONE', #96, .T. ) ;
#192 = PERSON_AND_ORGANIZATION ( #124, #114 ) ;
#193 = MECHANICAL_CONTEXT ( 'NONE', #169, 'mechanical' ) ;
#194 = CARTESIAN_POINT ( 'NONE',  ( 2.367900757518973625E-14, -8.305477824363904586E-16, 6.781937314617162649 ) ) ;
#195 = CARTESIAN_POINT ( 'NONE',  ( 1.326762908760390423E-13, 8.998558695971103225E-33, 38.00000000000000000 ) ) ;
#196 = CLOSED_SHELL ( 'NONE', ( #23, #38, #147 ) ) ;
#197 = CARTESIAN_POINT ( 'NONE',  ( 0.0000000000000000000, 0.0000000000000000000, 0.0000000000000000000 ) ) ;
#198 = EDGE_LOOP ( 'NONE', ( #160 ) ) ;
#199 = EDGE_LOOP ( 'NONE', ( #14 ) ) ;
#200 = ADVANCED_FACE ( 'NONE', ( #191 ), #29, .F. ) ;
#201 = ORIENTED_EDGE ( 'NONE', *, *, #40, .T. ) ;
#202 = CC_DESIGN_SECURITY_CLASSIFICATION ( #179, ( #50 ) ) ;
#203 = CARTESIAN_POINT ( 'NONE',  ( 0.0000000000000000000, 0.0000000000000000000, 0.0000000000000000000 ) ) ;
#204 = AXIS2_PLACEMENT_3D ( 'NONE', #73, #92, #215 ) ;
#205 = FACE_OUTER_BOUND ( 'NONE', #198, .T. ) ;
#206 = APPROVAL_PERSON_ORGANIZATION ( #68, #163, #171 ) ;
#207 = CARTESIAN_POINT ( 'NONE',  ( 1.187103655206665183E-14, 0.0000000000000000000, 3.399999999999999911 ) ) ;
#208 = ADVANCED_FACE ( 'NONE', ( #217 ), #48, .F. ) ;
#209 = LOCAL_TIME ( 8, 9, 54.00000000000000000, #13 ) ;
#210 = CARTESIAN_POINT ( 'NONE',  ( 2.367900757518973625E-14, 1.499999999999996225, 6.781937314617162649 ) ) ;
#211 = CARTESIAN_POINT ( 'NONE',  ( 1.326762908760390423E-13, 1.199999999999998845, 38.00000000000000000 ) ) ;
#212 = COORDINATED_UNIVERSAL_TIME_OFFSET ( 1, 0, .AHEAD. ) ;
#213 = DIRECTION ( 'NONE',  ( 0.0000000000000000000, 1.000000000000000000, 0.0000000000000000000 ) ) ;
#214 = CARTESIAN_POINT ( 'NONE',  ( 8.028333948446679351E-15, 5.624099184981963977E-33, 2.299406231713323479 ) ) ;
#215 = DIRECTION ( 'NONE',  ( 0.0000000000000000000, 1.000000000000000000, 0.0000000000000000000 ) ) ;
#216 = PERSON_AND_ORGANIZATION_ROLE ( 'creator' ) ;
#217 = FACE_OUTER_BOUND ( 'NONE', #78, .T. ) ;
#218 = CALENDAR_DATE ( 2021, 24, 11 ) ;
#219 = ORIENTED_EDGE ( 'NONE', *, *, #40, .F. ) ;
#220 = ADVANCED_FACE ( 'NONE', ( #234, #64 ), #165, .T. ) ;
#221 = ORIENTED_EDGE ( 'NONE', *, *, #5, .F. ) ;
#222 = DIRECTION ( 'NONE',  ( 4.355100981429076768E-31, 1.000000000000000000, 1.224646799147353207E-16 ) ) ;
#223 = CYLINDRICAL_SURFACE ( 'NONE', #232, 1.500000000000000000 ) ;
#224 = TOROIDAL_SURFACE ( 'NONE', #95, 8.750000000000000000, 8.000000000000000000 ) ;
#225 = EDGE_CURVE ( 'NONE', #4, #4, #184, .T. ) ;
#226 = PRODUCT ( '959722', '959722', '', ( #193 ) ) ;
#227 = LOCAL_TIME ( 8, 9, 54.00000000000000000, #7 ) ;
#228 = DIRECTION ( 'NONE',  ( -4.275831445896958607E-31, -1.000000000000000000, -1.224646799147353207E-16 ) ) ;
#229 = VERTEX_POINT ( 'NONE', #61 ) ;
#230 = DATE_TIME_ROLE ( 'creation_date' ) ;
#231 = DIRECTION ( 'NONE',  ( 3.491481338843133355E-15, -1.224646799147353207E-16, 1.000000000000000000 ) ) ;
#232 = AXIS2_PLACEMENT_3D ( 'NONE', #203, #22, #131 ) ;
#233 = APPLICATION_PROTOCOL_DEFINITION ( 'international standard', 'config_control_design', 1994, #186 ) ;
#234 = FACE_OUTER_BOUND ( 'NONE', #54, .T. ) ;
#235 = CARTESIAN_POINT ( 'NONE',  ( 1.187103655206665183E-14, -4.163799117101000559E-16, 3.399999999999999911 ) ) ;
#236 = DATE_AND_TIME ( #63, #209 ) ;
#237 = CYLINDRICAL_SURFACE ( 'NONE', #66, 0.7500000000000006661 ) ;
#238 = DATE_AND_TIME ( #121, #90 ) ;
#239 = ORIENTED_EDGE ( 'NONE', *, *, #225, .F. ) ;
#240 = AXIS2_PLACEMENT_3D ( 'NONE', #125, #105, #27 ) ;
#241 = PRODUCT_DEFINITION ( 'UNKNOWN', '', #50, #1 ) ;
#242 = ORIENTED_EDGE ( 'NONE', *, *, #81, .T. ) ;
#243 =( NAMED_UNIT ( * ) SI_UNIT ( $, .STERADIAN. ) SOLID_ANGLE_UNIT ( ) );
ENDSEC;
END-ISO-10303-21;
