ISO-10303-21;
HEADER;
FILE_DESCRIPTION (( 'STEP AP203' ),
    '1' );
FILE_NAME ('959721.step',
    '2021-11-24T07:10:06',
    ( '' ),
    ( '' ),
    'SwSTEP 2.0',
    'SolidWorks 2019',
    '' );
FILE_SCHEMA (( 'CONFIG_CONTROL_DESIGN' ));
ENDSEC;

DATA;
#1 = ORIENTED_EDGE ( 'NONE', *, *, #34, .F. ) ;
#2 = VERTEX_POINT ( 'NONE', #99 ) ;
#3 = CARTESIAN_POINT ( 'NONE',  ( 6.681278429250709796E-15, 0.7499999999999995559, 1.913594197087842064 ) ) ;
#4 = AXIS2_PLACEMENT_3D ( 'NONE', #240, #140, #174 ) ;
#5 = EDGE_LOOP ( 'NONE', ( #231 ) ) ;
#6 = APPLICATION_PROTOCOL_DEFINITION ( 'international standard', 'config_control_design', 1994, #51 ) ;
#7 = ORIENTED_EDGE ( 'NONE', *, *, #239, .T. ) ;
#8 = EDGE_LOOP ( 'NONE', ( #89 ) ) ;
#9 = APPROVAL_PERSON_ORGANIZATION ( #14, #11, #178 ) ;
#10 = FACE_OUTER_BOUND ( 'NONE', #148, .T. ) ;
#11 = APPROVAL ( #83, 'UNSPECIFIED' ) ;
#12 = APPROVAL_ROLE ( '' ) ;
#13 = DIRECTION ( 'NONE',  ( -3.491481338843133355E-15, 1.224646799147352961E-16, -1.000000000000000000 ) ) ;
#14 = PERSON_AND_ORGANIZATION ( #96, #179 ) ;
#15 = ADVANCED_FACE ( 'NONE', ( #113, #116 ), #93, .T. ) ;
#16 = CALENDAR_DATE ( 2021, 24, 11 ) ;
#17 = CALENDAR_DATE ( 2021, 24, 11 ) ;
#18 = PERSON_AND_ORGANIZATION ( #96, #179 ) ;
#19 = ORIENTED_EDGE ( 'NONE', *, *, #34, .T. ) ;
#20 = DIRECTION ( 'NONE',  ( 4.275831445896957731E-31, 1.000000000000000000, 1.224646799147352961E-16 ) ) ;
#21 = FACE_OUTER_BOUND ( 'NONE', #168, .T. ) ;
#22 = CC_DESIGN_PERSON_AND_ORGANIZATION_ASSIGNMENT ( #141, #159, ( #86 ) ) ;
#23 = CARTESIAN_POINT ( 'NONE',  ( 0.0000000000000000000, 0.0000000000000000000, 0.0000000000000000000 ) ) ;
#24 = MANIFOLD_SOLID_BREP ( 'Corps-Déplacer/Copier2[2]', #216 ) ;
#25 = VERTEX_POINT ( 'NONE', #62 ) ;
#26 = CARTESIAN_POINT ( 'NONE',  ( 6.681278429250709796E-15, -2.343477008330574998E-16, 1.913594197087842064 ) ) ;
#27 = PERSON_AND_ORGANIZATION ( #96, #179 ) ;
#28 = DIRECTION ( 'NONE',  ( 3.491481338843133355E-15, -1.224646799147352961E-16, 1.000000000000000000 ) ) ;
#29 = DATE_AND_TIME ( #48, #50 ) ;
#30 = PRODUCT_DEFINITION_SHAPE ( 'NONE', 'NONE',  #180 ) ;
#31 = PERSON_AND_ORGANIZATION ( #96, #179 ) ;
#32 = AXIS2_PLACEMENT_3D ( 'NONE', #119, #28, #237 ) ;
#33 = DATE_TIME_ROLE ( 'classification_date' ) ;
#34 = EDGE_CURVE ( 'NONE', #78, #78, #76, .T. ) ;
#35 = DIRECTION ( 'NONE',  ( 4.275831445896958607E-31, 1.000000000000000000, 1.224646799147352961E-16 ) ) ;
#36 = AXIS2_PLACEMENT_3D ( 'NONE', #149, #234, #165 ) ;
#37 = ORIENTED_EDGE ( 'NONE', *, *, #224, .F. ) ;
#38 = CARTESIAN_POINT ( 'NONE',  ( 1.187103655206665499E-14, 0.7499999999999988898, 3.400000000000000799 ) ) ;
#39 = ORIENTED_EDGE ( 'NONE', *, *, #75, .F. ) ;
#40 = CARTESIAN_POINT ( 'NONE',  ( 1.326762908760390423E-13, 8.998558695971097751E-33, 38.00000000000000000 ) ) ;
#41 = CIRCLE ( 'NONE', #53, 0.7499999999999993339 ) ;
#42 = EDGE_LOOP ( 'NONE', ( #57 ) ) ;
#43 = CC_DESIGN_PERSON_AND_ORGANIZATION_ASSIGNMENT ( #176, #108, ( #183 ) ) ;
#44 = DIRECTION ( 'NONE',  ( 1.000000000000000000, -8.298529501018557102E-33, -3.491481338843133750E-15 ) ) ;
#45 =( LENGTH_UNIT ( ) NAMED_UNIT ( * ) SI_UNIT ( .MILLI., .METRE. ) );
#46 = FACE_OUTER_BOUND ( 'NONE', #8, .T. ) ;
#47 = COORDINATED_UNIVERSAL_TIME_OFFSET ( 1, 0, .AHEAD. ) ;
#48 = CALENDAR_DATE ( 2021, 24, 11 ) ;
#49 = DATE_AND_TIME ( #143, #236 ) ;
#50 = LOCAL_TIME ( 8, 10, 6.000000000000000000, #142 ) ;
#51 = APPLICATION_CONTEXT ( 'configuration controlled 3d designs of mechanical parts and assemblies' ) ;
#52 = DIRECTION ( 'NONE',  ( -3.491481338843133355E-15, 1.224646799147352961E-16, -1.000000000000000000 ) ) ;
#53 = AXIS2_PLACEMENT_3D ( 'NONE', #70, #214, #241 ) ;
#54 = APPROVAL_PERSON_ORGANIZATION ( #122, #196, #215 ) ;
#55 = DIRECTION ( 'NONE',  ( 0.0000000000000000000, 1.000000000000000000, 0.0000000000000000000 ) ) ;
#56 = ORIENTED_EDGE ( 'NONE', *, *, #219, .F. ) ;
#57 = ORIENTED_EDGE ( 'NONE', *, *, #224, .T. ) ;
#58 = FACE_OUTER_BOUND ( 'NONE', #42, .T. ) ;
#59 = EDGE_LOOP ( 'NONE', ( #97 ) ) ;
#60 = CONICAL_SURFACE ( 'NONE', #190, 1.200000000000003064, 0.7853981633974453924 ) ;
#61 = PLANE ( 'NONE',  #32 ) ;
#62 = CARTESIAN_POINT ( 'NONE',  ( 1.326762908760390423E-13, 1.199999999999998623, 38.00000000000000000 ) ) ;
#63 = CLOSED_SHELL ( 'NONE', ( #208, #15, #111, #139, #172, #161 ) ) ;
#64 = CC_DESIGN_APPROVAL ( #196, ( #86 ) ) ;
#65 = VERTEX_POINT ( 'NONE', #38 ) ;
#66 = EDGE_CURVE ( 'NONE', #156, #156, #210, .T. ) ;
#67 = SPHERICAL_SURFACE ( 'NONE', #173, 0.1999999999999999833 ) ;
#68 = APPLICATION_CONTEXT ( 'configuration controlled 3d designs of mechanical parts and assemblies' ) ;
#69 = PRODUCT ( '959721', '959721', '', ( #226 ) ) ;
#70 = CARTESIAN_POINT ( 'NONE',  ( 1.187103655206665499E-14, -4.163799117101000559E-16, 3.400000000000000799 ) ) ;
#71 = PERSON_AND_ORGANIZATION ( #96, #179 ) ;
#72 = CONICAL_SURFACE ( 'NONE', #243, 0.7499999999999997780, 0.3054326190990009349 ) ;
#73 = COORDINATED_UNIVERSAL_TIME_OFFSET ( 1, 0, .AHEAD. ) ;
#74 = DIRECTION ( 'NONE',  ( 0.0000000000000000000, -1.000000000000000000, 0.0000000000000000000 ) ) ;
#75 = EDGE_CURVE ( 'NONE', #65, #65, #41, .T. ) ;
#76 = CIRCLE ( 'NONE', #98, 0.1907433901496457251 ) ;
#77 = EDGE_LOOP ( 'NONE', ( #39 ) ) ;
#78 = VERTEX_POINT ( 'NONE', #151 ) ;
#79 = CYLINDRICAL_SURFACE ( 'NONE', #129, 1.500000000000000000 ) ;
#80 =( NAMED_UNIT ( * ) SI_UNIT ( $, .STERADIAN. ) SOLID_ANGLE_UNIT ( ) );
#81 = LOCAL_TIME ( 8, 10, 6.000000000000000000, #47 ) ;
#82 = FACE_OUTER_BOUND ( 'NONE', #150, .T. ) ;
#83 = APPROVAL_STATUS ( 'not_yet_approved' ) ;
#84 = APPROVAL_STATUS ( 'not_yet_approved' ) ;
#85 = CC_DESIGN_PERSON_AND_ORGANIZATION_ASSIGNMENT ( #31, #212, ( #180 ) ) ;
#86 = SECURITY_CLASSIFICATION ( '', '', #175 ) ;
#87 = PERSON_AND_ORGANIZATION_ROLE ( 'design_owner' ) ;
#88 = PRODUCT_RELATED_PRODUCT_CATEGORY ( 'detail', '', ( #69 ) ) ;
#89 = ORIENTED_EDGE ( 'NONE', *, *, #66, .F. ) ;
#90 = ADVANCED_FACE ( 'NONE', ( #193 ), #67, .T. ) ;
#91 = PLANE ( 'NONE',  #158 ) ;
#92 = CC_DESIGN_DATE_AND_TIME_ASSIGNMENT ( #127, #199, ( #180 ) ) ;
#93 = CYLINDRICAL_SURFACE ( 'NONE', #144, 0.7499999999999995559 ) ;
#94 = AXIS2_PLACEMENT_3D ( 'NONE', #40, #110, #20 ) ;
#95 = DIRECTION ( 'NONE',  ( 0.0000000000000000000, 0.0000000000000000000, 1.000000000000000000 ) ) ;
#96 = PERSON ( 'UNSPECIFIED', 'UNSPECIFIED', 'UNSPECIFIED', ('UNSPECIFIED'), ('UNSPECIFIED'), ('UNSPECIFIED') ) ;
#97 = ORIENTED_EDGE ( 'NONE', *, *, #239, .F. ) ;
#98 = AXIS2_PLACEMENT_3D ( 'NONE', #221, #52, #132 ) ;
#99 = CARTESIAN_POINT ( 'NONE',  ( 1.316288464743861212E-13, 1.499999999999998446, 37.69999999999999574 ) ) ;
#100 = FACE_OUTER_BOUND ( 'NONE', #155, .T. ) ;
#101 = DIRECTION ( 'NONE',  ( 0.0000000000000000000, 1.000000000000000000, 0.0000000000000000000 ) ) ;
#102 = CARTESIAN_POINT ( 'NONE',  ( 6.681278429250709796E-15, -2.343477008330574998E-16, 1.913594197087842064 ) ) ;
#103 = DIRECTION ( 'NONE',  ( 0.0000000000000000000, 1.000000000000000000, 0.0000000000000000000 ) ) ;
#104 = COORDINATED_UNIVERSAL_TIME_OFFSET ( 1, 0, .AHEAD. ) ;
#105 = FACE_OUTER_BOUND ( 'NONE', #77, .T. ) ;
#106 = APPROVAL_DATE_TIME ( #181, #11 ) ;
#107 = CC_DESIGN_DATE_AND_TIME_ASSIGNMENT ( #29, #33, ( #86 ) ) ;
#108 = PERSON_AND_ORGANIZATION_ROLE ( 'design_supplier' ) ;
#109 = AXIS2_PLACEMENT_3D ( 'NONE', #191, #238, #103 ) ;
#110 = DIRECTION ( 'NONE',  ( -3.491481338843133355E-15, 1.224646799147352961E-16, -1.000000000000000000 ) ) ;
#111 = ADVANCED_FACE ( 'NONE', ( #195, #105 ), #206, .F. ) ;
#112 = ADVANCED_BREP_SHAPE_REPRESENTATION ( '959721', ( #182, #24, #114 ), #232 ) ;
#113 = FACE_OUTER_BOUND ( 'NONE', #59, .T. ) ;
#114 = AXIS2_PLACEMENT_3D ( 'NONE', #23, #95, #167 ) ;
#115 = DIRECTION ( 'NONE',  ( 0.0000000000000000000, 1.000000000000000000, 0.0000000000000000000 ) ) ;
#116 = FACE_OUTER_BOUND ( 'NONE', #5, .T. ) ;
#117 = DIRECTION ( 'NONE',  ( -3.491481338843133355E-15, 1.224646799147352961E-16, -1.000000000000000000 ) ) ;
#118 = APPROVAL_PERSON_ORGANIZATION ( #18, #133, #12 ) ;
#119 = CARTESIAN_POINT ( 'NONE',  ( 6.681278429250709007E-15, -5.532594628635449105E-16, 1.913594197087841842 ) ) ;
#120 = CARTESIAN_POINT ( 'NONE',  ( 6.681278429250709796E-15, 0.7499999999999995559, 1.913594197087842064 ) ) ;
#121 = COORDINATED_UNIVERSAL_TIME_OFFSET ( 1, 0, .AHEAD. ) ;
#122 = PERSON_AND_ORGANIZATION ( #96, #179 ) ;
#123 = AXIS2_PLACEMENT_3D ( 'NONE', #102, #211, #115 ) ;
#124 = ADVANCED_FACE ( 'NONE', ( #233 ), #61, .T. ) ;
#125 = APPROVAL_DATE_TIME ( #218, #196 ) ;
#126 = APPROVAL_DATE_TIME ( #49, #133 ) ;
#127 = DATE_AND_TIME ( #198, #130 ) ;
#128 = EDGE_CURVE ( 'NONE', #25, #25, #138, .T. ) ;
#129 = AXIS2_PLACEMENT_3D ( 'NONE', #235, #13, #157 ) ;
#130 = LOCAL_TIME ( 8, 10, 6.000000000000000000, #121 ) ;
#131 = EDGE_LOOP ( 'NONE', ( #164 ) ) ;
#132 = DIRECTION ( 'NONE',  ( 5.048484099177086997E-31, 1.000000000000000000, 1.421021944239987698E-16 ) ) ;
#133 = APPROVAL ( #197, 'UNSPECIFIED' ) ;
#134 = VERTEX_POINT ( 'NONE', #120 ) ;
#135 = UNCERTAINTY_MEASURE_WITH_UNIT (LENGTH_MEASURE( 1.000000000000000082E-05 ), #45, 'distance_accuracy_value', 'NONE');
#136 = DIRECTION ( 'NONE',  ( 3.491481338843133355E-15, -1.224646799147352961E-16, 1.000000000000000000 ) ) ;
#137 = CARTESIAN_POINT ( 'NONE',  ( 1.326762908760390423E-13, -4.653657836759941152E-15, 38.00000000000000000 ) ) ;
#139 = ADVANCED_FACE ( 'NONE', ( #46, #100 ), #79, .T. ) ;
#138 = CIRCLE ( 'NONE', #109, 1.200000000000003064 ) ;
#140 = DIRECTION ( 'NONE',  ( -3.491481338843133355E-15, 1.224646799147352961E-16, -1.000000000000000000 ) ) ;
#141 = PERSON_AND_ORGANIZATION ( #96, #179 ) ;
#142 = COORDINATED_UNIVERSAL_TIME_OFFSET ( 1, 0, .AHEAD. ) ;
#143 = CALENDAR_DATE ( 2021, 24, 11 ) ;
#144 = AXIS2_PLACEMENT_3D ( 'NONE', #189, #200, #35 ) ;
#145 = CC_DESIGN_SECURITY_CLASSIFICATION ( #86, ( #183 ) ) ;
#146 = CC_DESIGN_APPROVAL ( #133, ( #180 ) ) ;
#147 = CC_DESIGN_PERSON_AND_ORGANIZATION_ASSIGNMENT ( #71, #87, ( #69 ) ) ;
#148 = EDGE_LOOP ( 'NONE', ( #56 ) ) ;
#149 = CARTESIAN_POINT ( 'NONE',  ( 6.681278429250709796E-15, -2.343477008330574998E-16, 1.913594197087842064 ) ) ;
#150 = EDGE_LOOP ( 'NONE', ( #207 ) ) ;
#151 = CARTESIAN_POINT ( 'NONE',  ( 4.883145302784163412E-16, 0.1907433901496456974, 0.1398588400991466751 ) ) ;
#152 = EDGE_LOOP ( 'NONE', ( #230 ) ) ;
#153 = DIRECTION ( 'NONE',  ( 3.491481338843133355E-15, -1.224646799147352961E-16, 1.000000000000000000 ) ) ;
#154 = EDGE_LOOP ( 'NONE', ( #1 ) ) ;
#155 = EDGE_LOOP ( 'NONE', ( #227 ) ) ;
#156 = VERTEX_POINT ( 'NONE', #188 ) ;
#157 = DIRECTION ( 'NONE',  ( 4.275831445896957731E-31, 1.000000000000000000, 1.224646799147353207E-16 ) ) ;
#158 = AXIS2_PLACEMENT_3D ( 'NONE', #184, #136, #205 ) ;
#159 = PERSON_AND_ORGANIZATION_ROLE ( 'classification_officer' ) ;
#160 = AXIS2_PLACEMENT_3D ( 'NONE', #171, #117, #101 ) ;
#161 = ADVANCED_FACE ( 'NONE', ( #82 ), #186, .F. ) ;
#162 = AXIS2_PLACEMENT_3D ( 'NONE', #222, #187, #55 ) ;
#163 = ADVANCED_FACE ( 'NONE', ( #201, #58 ), #72, .T. ) ;
#164 = ORIENTED_EDGE ( 'NONE', *, *, #66, .T. ) ;
#165 = DIRECTION ( 'NONE',  ( 0.0000000000000000000, 1.000000000000000000, 0.0000000000000000000 ) ) ;
#166 =( NAMED_UNIT ( * ) PLANE_ANGLE_UNIT ( ) SI_UNIT ( $, .RADIAN. ) );
#167 = DIRECTION ( 'NONE',  ( 1.000000000000000000, 0.0000000000000000000, 0.0000000000000000000 ) ) ;
#168 = EDGE_LOOP ( 'NONE', ( #7 ) ) ;
#169 = CC_DESIGN_APPROVAL ( #11, ( #183 ) ) ;
#170 = VERTEX_POINT ( 'NONE', #3 ) ;
#171 = CARTESIAN_POINT ( 'NONE',  ( 2.367900757518974887E-14, -8.305477824363906558E-16, 6.781937314617165313 ) ) ;
#172 = ADVANCED_FACE ( 'NONE', ( #10, #185 ), #60, .T. ) ;
#173 = AXIS2_PLACEMENT_3D ( 'NONE', #177, #44, #209 ) ;
#174 = DIRECTION ( 'NONE',  ( 4.355100981429075892E-31, 1.000000000000000000, 1.224646799147352961E-16 ) ) ;
#175 = SECURITY_CLASSIFICATION_LEVEL ( 'unclassified' ) ;
#176 = PERSON_AND_ORGANIZATION ( #96, #179 ) ;
#177 = CARTESIAN_POINT ( 'NONE',  ( 6.982962677686266711E-16, -2.449293598294706538E-17, 0.2000000000000000111 ) ) ;
#178 = APPROVAL_ROLE ( '' ) ;
#179 = ORGANIZATION ( 'UNSPECIFIED', 'UNSPECIFIED', '' ) ;
#180 = PRODUCT_DEFINITION ( 'UNKNOWN', '', #183, #228 ) ;
#181 = DATE_AND_TIME ( #16, #81 ) ;
#182 = MANIFOLD_SOLID_BREP ( 'Corps-Déplacer/Copier2[1]', #63 ) ;
#183 = PRODUCT_DEFINITION_FORMATION_WITH_SPECIFIED_SOURCE ( 'ANY', '', #69, .NOT_KNOWN. ) ;
#184 = CARTESIAN_POINT ( 'NONE',  ( 6.681278429250709007E-15, -5.532594628635449105E-16, 1.913594197087841842 ) ) ;
#185 = FACE_BOUND ( 'NONE', #152, .T. ) ;
#186 = PLANE ( 'NONE',  #94 ) ;
#187 = DIRECTION ( 'NONE',  ( -3.491481338843133355E-15, 1.224646799147352961E-16, -1.000000000000000000 ) ) ;
#188 = CARTESIAN_POINT ( 'NONE',  ( 2.367900757518974887E-14, 1.499999999999996225, 6.781937314617165313 ) ) ;
#189 = CARTESIAN_POINT ( 'NONE',  ( 0.0000000000000000000, 0.0000000000000000000, 0.0000000000000000000 ) ) ;
#190 = AXIS2_PLACEMENT_3D ( 'NONE', #137, #229, #202 ) ;
#191 = CARTESIAN_POINT ( 'NONE',  ( 1.326762908760390423E-13, -4.653657836759941152E-15, 38.00000000000000000 ) ) ;
#192 = PERSON_AND_ORGANIZATION_ROLE ( 'creator' ) ;
#193 = FACE_OUTER_BOUND ( 'NONE', #225, .T. ) ;
#194 = CIRCLE ( 'NONE', #36, 0.7499999999999997780 ) ;
#195 = FACE_OUTER_BOUND ( 'NONE', #131, .T. ) ;
#196 = APPROVAL ( #84, 'UNSPECIFIED' ) ;
#197 = APPROVAL_STATUS ( 'not_yet_approved' ) ;
#198 = CALENDAR_DATE ( 2021, 24, 11 ) ;
#199 = DATE_TIME_ROLE ( 'creation_date' ) ;
#200 = DIRECTION ( 'NONE',  ( -3.491481338843133355E-15, 1.224646799147352961E-16, -1.000000000000000000 ) ) ;
#201 = FACE_BOUND ( 'NONE', #154, .T. ) ;
#202 = DIRECTION ( 'NONE',  ( 0.0000000000000000000, 1.000000000000000000, 0.0000000000000000000 ) ) ;
#203 = CC_DESIGN_PERSON_AND_ORGANIZATION_ASSIGNMENT ( #27, #192, ( #183 ) ) ;
#204 = EDGE_LOOP ( 'NONE', ( #37 ) ) ;
#205 = DIRECTION ( 'NONE',  ( -4.275831445896957731E-31, -1.000000000000000000, -1.224646799147352961E-16 ) ) ;
#206 = TOROIDAL_SURFACE ( 'NONE', #4, 8.749999999999998224, 8.000000000000000000 ) ;
#207 = ORIENTED_EDGE ( 'NONE', *, *, #128, .F. ) ;
#208 = ADVANCED_FACE ( 'NONE', ( #21 ), #91, .F. ) ;
#209 = DIRECTION ( 'NONE',  ( 4.814824860968089633E-31, 1.000000000000000000, 1.355252715606880543E-16 ) ) ;
#210 = CIRCLE ( 'NONE', #160, 1.499999999999996891 ) ;
#211 = DIRECTION ( 'NONE',  ( -3.491481338843133355E-15, 1.224646799147352961E-16, -1.000000000000000000 ) ) ;
#212 = PERSON_AND_ORGANIZATION_ROLE ( 'creator' ) ;
#213 = SHAPE_DEFINITION_REPRESENTATION ( #30, #112 ) ;
#214 = DIRECTION ( 'NONE',  ( -3.491481338843133355E-15, 1.224646799147352961E-16, -1.000000000000000000 ) ) ;
#215 = APPROVAL_ROLE ( '' ) ;
#216 = CLOSED_SHELL ( 'NONE', ( #90, #163, #124 ) ) ;
#217 = LOCAL_TIME ( 8, 10, 6.000000000000000000, #104 ) ;
#218 = DATE_AND_TIME ( #17, #217 ) ;
#219 = EDGE_CURVE ( 'NONE', #2, #2, #223, .T. ) ;
#220 = CIRCLE ( 'NONE', #123, 0.7499999999999997780 ) ;
#221 = CARTESIAN_POINT ( 'NONE',  ( 4.883145302784162426E-16, -1.712776808598813678E-17, 0.1398588400991466474 ) ) ;
#222 = CARTESIAN_POINT ( 'NONE',  ( 1.316288464743861212E-13, -4.616918432785520292E-15, 37.69999999999999574 ) ) ;
#223 = CIRCLE ( 'NONE', #162, 1.500000000000003109 ) ;
#224 = EDGE_CURVE ( 'NONE', #170, #170, #194, .T. ) ;
#225 = EDGE_LOOP ( 'NONE', ( #19 ) ) ;
#226 = MECHANICAL_CONTEXT ( 'NONE', #51, 'mechanical' ) ;
#227 = ORIENTED_EDGE ( 'NONE', *, *, #219, .T. ) ;
#228 = DESIGN_CONTEXT ( 'detailed design', #68, 'design' ) ;
#229 = DIRECTION ( 'NONE',  ( -3.491481338843133355E-15, 1.224646799147352961E-16, -1.000000000000000000 ) ) ;
#230 = ORIENTED_EDGE ( 'NONE', *, *, #128, .T. ) ;
#231 = ORIENTED_EDGE ( 'NONE', *, *, #75, .T. ) ;
#232 =( GEOMETRIC_REPRESENTATION_CONTEXT ( 3 ) GLOBAL_UNCERTAINTY_ASSIGNED_CONTEXT ( ( #135 ) ) GLOBAL_UNIT_ASSIGNED_CONTEXT ( ( #45, #166, #80 ) ) REPRESENTATION_CONTEXT ( 'NONE', 'WORKASPACE' ) );
#233 = FACE_OUTER_BOUND ( 'NONE', #204, .T. ) ;
#234 = DIRECTION ( 'NONE',  ( -3.491481338843133355E-15, 1.224646799147352961E-16, -1.000000000000000000 ) ) ;
#235 = CARTESIAN_POINT ( 'NONE',  ( 0.0000000000000000000, 0.0000000000000000000, 0.0000000000000000000 ) ) ;
#236 = LOCAL_TIME ( 8, 10, 6.000000000000000000, #73 ) ;
#237 = DIRECTION ( 'NONE',  ( -4.275831445896957731E-31, -1.000000000000000000, -1.224646799147352961E-16 ) ) ;
#238 = DIRECTION ( 'NONE',  ( -3.491481338843133355E-15, 1.224646799147352961E-16, -1.000000000000000000 ) ) ;
#239 = EDGE_CURVE ( 'NONE', #134, #134, #220, .T. ) ;
#240 = CARTESIAN_POINT ( 'NONE',  ( 1.187103655206665183E-14, 0.0000000000000000000, 3.399999999999999911 ) ) ;
#241 = DIRECTION ( 'NONE',  ( 0.0000000000000000000, 1.000000000000000000, 0.0000000000000000000 ) ) ;
#242 = APPLICATION_PROTOCOL_DEFINITION ( 'international standard', 'config_control_design', 1994, #68 ) ;
#243 = AXIS2_PLACEMENT_3D ( 'NONE', #26, #153, #74 ) ;
ENDSEC;
END-ISO-10303-21;
