ISO-10303-21;
HEADER;
FILE_DESCRIPTION (( 'STEP AP203' ),
    '1' );
FILE_NAME ('959720.step',
    '2021-11-24T07:10:05',
    ( '' ),
    ( '' ),
    'SwSTEP 2.0',
    'SolidWorks 2019',
    '' );
FILE_SCHEMA (( 'CONFIG_CONTROL_DESIGN' ));
ENDSEC;

DATA;
#1 = PERSON_AND_ORGANIZATION_ROLE ( 'design_owner' ) ;
#2 = APPROVAL_STATUS ( 'not_yet_approved' ) ;
#3 = EDGE_LOOP ( 'NONE', ( #48 ) ) ;
#4 = DIRECTION ( 'NONE',  ( -4.275831445896957731E-31, -1.000000000000000000, -1.224646799147352961E-16 ) ) ;
#5 = CARTESIAN_POINT ( 'NONE',  ( 5.237222008264699047E-16, -1.836970198721029441E-17, 0.1499999999999999944 ) ) ;
#6 = CC_DESIGN_APPROVAL ( #60, ( #177 ) ) ;
#7 = DIRECTION ( 'NONE',  ( 0.0000000000000000000, 1.000000000000000000, 0.0000000000000000000 ) ) ;
#8 = DIRECTION ( 'NONE',  ( -3.491481338843133355E-15, 1.224646799147352961E-16, -1.000000000000000000 ) ) ;
#9 = ORIENTED_EDGE ( 'NONE', *, *, #12, .F. ) ;
#10 = DIRECTION ( 'NONE',  ( 6.419766481290784717E-31, 1.000000000000000000, 1.807003620809173646E-16 ) ) ;
#11 = AXIS2_PLACEMENT_3D ( 'NONE', #43, #82, #190 ) ;
#12 = EDGE_CURVE ( 'NONE', #47, #47, #205, .T. ) ;
#13 = CIRCLE ( 'NONE', #11, 1.499999999999996891 ) ;
#14 = CARTESIAN_POINT ( 'NONE',  ( 0.0000000000000000000, 0.0000000000000000000, 0.0000000000000000000 ) ) ;
#15 = CC_DESIGN_PERSON_AND_ORGANIZATION_ASSIGNMENT ( #224, #34, ( #177 ) ) ;
#16 = CIRCLE ( 'NONE', #154, 0.7499999999999993339 ) ;
#17 = SECURITY_CLASSIFICATION ( '', '', #31 ) ;
#18 = DIRECTION ( 'NONE',  ( 1.000000000000000000, 0.0000000000000000000, 0.0000000000000000000 ) ) ;
#19 = MANIFOLD_SOLID_BREP ( 'Corps-Déplacer/Copier2[2]', #68 ) ;
#20 = AXIS2_PLACEMENT_3D ( 'NONE', #5, #61, #10 ) ;
#21 = AXIS2_PLACEMENT_3D ( 'NONE', #116, #8, #24 ) ;
#22 = CARTESIAN_POINT ( 'NONE',  ( 1.187103655206665499E-14, -4.163799117101000559E-16, 3.400000000000000799 ) ) ;
#23 = EDGE_LOOP ( 'NONE', ( #238 ) ) ;
#24 = DIRECTION ( 'NONE',  ( 0.0000000000000000000, 1.000000000000000000, 0.0000000000000000000 ) ) ;
#25 = DIRECTION ( 'NONE',  ( -3.491481338843133355E-15, 1.224646799147352961E-16, -1.000000000000000000 ) ) ;
#26 = CARTESIAN_POINT ( 'NONE',  ( 7.087252084467399533E-15, -2.485873398042914469E-16, 2.029869673258997587 ) ) ;
#27 = CARTESIAN_POINT ( 'NONE',  ( 7.087252084467399533E-15, 5.624099184981959187E-33, 2.029869673258997587 ) ) ;
#28 = ORIENTED_EDGE ( 'NONE', *, *, #12, .T. ) ;
#29 = ORGANIZATION ( 'UNSPECIFIED', 'UNSPECIFIED', '' ) ;
#30 = FACE_OUTER_BOUND ( 'NONE', #38, .T. ) ;
#31 = SECURITY_CLASSIFICATION_LEVEL ( 'unclassified' ) ;
#32 = APPROVAL_DATE_TIME ( #219, #197 ) ;
#33 = MECHANICAL_CONTEXT ( 'NONE', #198, 'mechanical' ) ;
#34 = PERSON_AND_ORGANIZATION_ROLE ( 'creator' ) ;
#35 = ADVANCED_FACE ( 'NONE', ( #30 ), #218, .T. ) ;
#36 = DATE_AND_TIME ( #221, #143 ) ;
#37 = ORIENTED_EDGE ( 'NONE', *, *, #186, .F. ) ;
#38 = EDGE_LOOP ( 'NONE', ( #42 ) ) ;
#39 = FACE_OUTER_BOUND ( 'NONE', #208, .T. ) ;
#40 = CIRCLE ( 'NONE', #229, 0.1430575426122343563 ) ;
#41 = LOCAL_TIME ( 8, 10, 5.000000000000000000, #73 ) ;
#42 = ORIENTED_EDGE ( 'NONE', *, *, #79, .F. ) ;
#43 = CARTESIAN_POINT ( 'NONE',  ( 2.367900757518974887E-14, -8.305477824363906558E-16, 6.781937314617165313 ) ) ;
#44 = DIRECTION ( 'NONE',  ( -3.491481338843133355E-15, 1.224646799147352961E-16, -1.000000000000000000 ) ) ;
#45 = CYLINDRICAL_SURFACE ( 'NONE', #150, 0.7499999999999995559 ) ;
#46 = APPROVAL_PERSON_ORGANIZATION ( #88, #212, #56 ) ;
#47 = VERTEX_POINT ( 'NONE', #175 ) ;
#48 = ORIENTED_EDGE ( 'NONE', *, *, #216, .T. ) ;
#49 = DIRECTION ( 'NONE',  ( 3.491481338843133355E-15, -1.224646799147352961E-16, 1.000000000000000000 ) ) ;
#50 = VERTEX_POINT ( 'NONE', #220 ) ;
#51 = VERTEX_POINT ( 'NONE', #173 ) ;
#52 = PERSON_AND_ORGANIZATION_ROLE ( 'creator' ) ;
#53 = CIRCLE ( 'NONE', #225, 0.7499999999999997780 ) ;
#54 = ADVANCED_BREP_SHAPE_REPRESENTATION ( '959720', ( #103, #19, #160 ), #101 ) ;
#55 = CC_DESIGN_APPROVAL ( #212, ( #90 ) ) ;
#56 = APPROVAL_ROLE ( '' ) ;
#57 = PERSON_AND_ORGANIZATION_ROLE ( 'design_supplier' ) ;
#58 = PERSON_AND_ORGANIZATION ( #180, #29 ) ;
#59 = ORIENTED_EDGE ( 'NONE', *, *, #176, .F. ) ;
#60 = APPROVAL ( #148, 'UNSPECIFIED' ) ;
#61 = DIRECTION ( 'NONE',  ( 1.000000000000000000, -1.106470600135814456E-32, -3.491481338843133355E-15 ) ) ;
#62 = CLOSED_SHELL ( 'NONE', ( #122, #236, #226, #97, #231, #152 ) ) ;
#63 = CARTESIAN_POINT ( 'NONE',  ( 1.326762908760390423E-13, -4.653657836759941152E-15, 38.00000000000000000 ) ) ;
#64 = FACE_OUTER_BOUND ( 'NONE', #196, .T. ) ;
#65 = DIRECTION ( 'NONE',  ( 0.0000000000000000000, -1.000000000000000000, 0.0000000000000000000 ) ) ;
#66 = APPROVAL_PERSON_ORGANIZATION ( #179, #197, #240 ) ;
#67 = COORDINATED_UNIVERSAL_TIME_OFFSET ( 1, 0, .AHEAD. ) ;
#68 = CLOSED_SHELL ( 'NONE', ( #77, #184, #35 ) ) ;
#69 = CC_DESIGN_SECURITY_CLASSIFICATION ( #17, ( #177 ) ) ;
#70 = EDGE_CURVE ( 'NONE', #149, #149, #241, .T. ) ;
#71 = CARTESIAN_POINT ( 'NONE',  ( 1.326762908760390423E-13, 1.199999999999998623, 38.00000000000000000 ) ) ;
#72 = CALENDAR_DATE ( 2021, 24, 11 ) ;
#73 = COORDINATED_UNIVERSAL_TIME_OFFSET ( 1, 0, .AHEAD. ) ;
#74 = COORDINATED_UNIVERSAL_TIME_OFFSET ( 1, 0, .AHEAD. ) ;
#75 = COORDINATED_UNIVERSAL_TIME_OFFSET ( 1, 0, .AHEAD. ) ;
#76 = DATE_AND_TIME ( #178, #200 ) ;
#77 = ADVANCED_FACE ( 'NONE', ( #156 ), #210, .T. ) ;
#78 = DIRECTION ( 'NONE',  ( -3.491481338843133355E-15, 1.224646799147352961E-16, -1.000000000000000000 ) ) ;
#79 = EDGE_CURVE ( 'NONE', #50, #50, #86, .T. ) ;
#80 = CARTESIAN_POINT ( 'NONE',  ( 3.662358977088120834E-16, -1.284582606449110258E-17, 0.1048941300743599647 ) ) ;
#81 = TOROIDAL_SURFACE ( 'NONE', #126, 8.749999999999998224, 8.000000000000000000 ) ;
#82 = DIRECTION ( 'NONE',  ( -3.491481338843133355E-15, 1.224646799147352961E-16, -1.000000000000000000 ) ) ;
#83 = FACE_OUTER_BOUND ( 'NONE', #123, .T. ) ;
#84 = FACE_BOUND ( 'NONE', #136, .T. ) ;
#85 = EDGE_LOOP ( 'NONE', ( #111 ) ) ;
#86 = CIRCLE ( 'NONE', #159, 0.7499999999999997780 ) ;
#87 = PERSON_AND_ORGANIZATION ( #180, #29 ) ;
#88 = PERSON_AND_ORGANIZATION ( #180, #29 ) ;
#89 = PERSON_AND_ORGANIZATION_ROLE ( 'classification_officer' ) ;
#90 = PRODUCT_DEFINITION ( 'UNKNOWN', '', #177, #211 ) ;
#91 = CC_DESIGN_APPROVAL ( #197, ( #17 ) ) ;
#92 = APPLICATION_CONTEXT ( 'configuration controlled 3d designs of mechanical parts and assemblies' ) ;
#93 = APPLICATION_PROTOCOL_DEFINITION ( 'international standard', 'config_control_design', 1994, #92 ) ;
#94 = VERTEX_POINT ( 'NONE', #183 ) ;
#95 = EDGE_LOOP ( 'NONE', ( #59 ) ) ;
#96 = DIRECTION ( 'NONE',  ( 0.0000000000000000000, 1.000000000000000000, 0.0000000000000000000 ) ) ;
#97 = ADVANCED_FACE ( 'NONE', ( #172, #121 ), #171, .T. ) ;
#98 = DIRECTION ( 'NONE',  ( 4.275831445896957731E-31, 1.000000000000000000, 1.224646799147353207E-16 ) ) ;
#99 = FACE_OUTER_BOUND ( 'NONE', #3, .T. ) ;
#100 = AXIS2_PLACEMENT_3D ( 'NONE', #115, #201, #144 ) ;
#101 =( GEOMETRIC_REPRESENTATION_CONTEXT ( 3 ) GLOBAL_UNCERTAINTY_ASSIGNED_CONTEXT ( ( #194 ) ) GLOBAL_UNIT_ASSIGNED_CONTEXT ( ( #127, #129, #106 ) ) REPRESENTATION_CONTEXT ( 'NONE', 'WORKASPACE' ) );
#102 = CARTESIAN_POINT ( 'NONE',  ( 1.187103655206665183E-14, 0.0000000000000000000, 3.399999999999999911 ) ) ;
#103 = MANIFOLD_SOLID_BREP ( 'Corps-Déplacer/Copier2[1]', #62 ) ;
#104 = CC_DESIGN_DATE_AND_TIME_ASSIGNMENT ( #36, #163, ( #90 ) ) ;
#105 = ORIENTED_EDGE ( 'NONE', *, *, #131, .T. ) ;
#106 =( NAMED_UNIT ( * ) SI_UNIT ( $, .STERADIAN. ) SOLID_ANGLE_UNIT ( ) );
#107 = CALENDAR_DATE ( 2021, 24, 11 ) ;
#108 = PERSON_AND_ORGANIZATION ( #180, #29 ) ;
#109 = APPROVAL_DATE_TIME ( #204, #60 ) ;
#110 = PERSON_AND_ORGANIZATION ( #180, #29 ) ;
#111 = ORIENTED_EDGE ( 'NONE', *, *, #79, .T. ) ;
#112 = EDGE_LOOP ( 'NONE', ( #187 ) ) ;
#113 = AXIS2_PLACEMENT_3D ( 'NONE', #213, #25, #118 ) ;
#114 = PLANE ( 'NONE',  #235 ) ;
#115 = CARTESIAN_POINT ( 'NONE',  ( 1.316288464743861212E-13, -4.616918432785520292E-15, 37.69999999999999574 ) ) ;
#116 = CARTESIAN_POINT ( 'NONE',  ( 1.326762908760390423E-13, -4.653657836759941152E-15, 38.00000000000000000 ) ) ;
#117 = PRODUCT ( '959720', '959720', '', ( #33 ) ) ;
#118 = DIRECTION ( 'NONE',  ( 4.275831445896957731E-31, 1.000000000000000000, 1.224646799147352961E-16 ) ) ;
#119 = DIRECTION ( 'NONE',  ( 4.355100981429075892E-31, 1.000000000000000000, 1.224646799147352961E-16 ) ) ;
#120 = CONICAL_SURFACE ( 'NONE', #21, 1.200000000000003064, 0.7853981633974453924 ) ;
#121 = FACE_OUTER_BOUND ( 'NONE', #161, .T. ) ;
#122 = ADVANCED_FACE ( 'NONE', ( #64 ), #114, .F. ) ;
#123 = EDGE_LOOP ( 'NONE', ( #151 ) ) ;
#124 = CARTESIAN_POINT ( 'NONE',  ( 7.087252084467399533E-15, 5.624099184981959187E-33, 2.029869673258997587 ) ) ;
#125 = AXIS2_PLACEMENT_3D ( 'NONE', #26, #191, #65 ) ;
#126 = AXIS2_PLACEMENT_3D ( 'NONE', #102, #138, #119 ) ;
#127 =( LENGTH_UNIT ( ) NAMED_UNIT ( * ) SI_UNIT ( .MILLI., .METRE. ) );
#128 = CC_DESIGN_PERSON_AND_ORGANIZATION_ASSIGNMENT ( #108, #89, ( #17 ) ) ;
#129 =( NAMED_UNIT ( * ) PLANE_ANGLE_UNIT ( ) SI_UNIT ( $, .RADIAN. ) );
#130 = APPLICATION_PROTOCOL_DEFINITION ( 'international standard', 'config_control_design', 1994, #198 ) ;
#131 = EDGE_CURVE ( 'NONE', #51, #51, #53, .T. ) ;
#132 = CALENDAR_DATE ( 2021, 24, 11 ) ;
#133 = LOCAL_TIME ( 8, 10, 5.000000000000000000, #74 ) ;
#134 = PRODUCT_DEFINITION_SHAPE ( 'NONE', 'NONE',  #90 ) ;
#135 = PERSON_AND_ORGANIZATION ( #180, #29 ) ;
#136 = EDGE_LOOP ( 'NONE', ( #37 ) ) ;
#137 = DIRECTION ( 'NONE',  ( 3.365656066118056976E-31, 1.000000000000000000, 9.473479628266581779E-17 ) ) ;
#138 = DIRECTION ( 'NONE',  ( -3.491481338843133355E-15, 1.224646799147352961E-16, -1.000000000000000000 ) ) ;
#139 = CC_DESIGN_PERSON_AND_ORGANIZATION_ASSIGNMENT ( #135, #1, ( #117 ) ) ;
#140 = DIRECTION ( 'NONE',  ( -3.491481338843133355E-15, 1.224646799147352961E-16, -1.000000000000000000 ) ) ;
#141 = DIRECTION ( 'NONE',  ( 0.0000000000000000000, 1.000000000000000000, 0.0000000000000000000 ) ) ;
#142 = DIRECTION ( 'NONE',  ( -3.491481338843133355E-15, 1.224646799147352961E-16, -1.000000000000000000 ) ) ;
#143 = LOCAL_TIME ( 8, 10, 5.000000000000000000, #164 ) ;
#144 = DIRECTION ( 'NONE',  ( 0.0000000000000000000, 1.000000000000000000, 0.0000000000000000000 ) ) ;
#145 = DIRECTION ( 'NONE',  ( 0.0000000000000000000, 0.0000000000000000000, 1.000000000000000000 ) ) ;
#146 = CC_DESIGN_PERSON_AND_ORGANIZATION_ASSIGNMENT ( #87, #52, ( #90 ) ) ;
#147 = VERTEX_POINT ( 'NONE', #202 ) ;
#148 = APPROVAL_STATUS ( 'not_yet_approved' ) ;
#149 = VERTEX_POINT ( 'NONE', #71 ) ;
#150 = AXIS2_PLACEMENT_3D ( 'NONE', #234, #142, #215 ) ;
#151 = ORIENTED_EDGE ( 'NONE', *, *, #176, .T. ) ;
#152 = ADVANCED_FACE ( 'NONE', ( #39 ), #153, .F. ) ;
#153 = PLANE ( 'NONE',  #113 ) ;
#154 = AXIS2_PLACEMENT_3D ( 'NONE', #22, #78, #96 ) ;
#155 = DIRECTION ( 'NONE',  ( -3.491481338843133355E-15, 1.224646799147352961E-16, -1.000000000000000000 ) ) ;
#156 = FACE_OUTER_BOUND ( 'NONE', #169, .T. ) ;
#157 = DIRECTION ( 'NONE',  ( 0.0000000000000000000, 1.000000000000000000, 0.0000000000000000000 ) ) ;
#158 = DIRECTION ( 'NONE',  ( -3.491481338843133355E-15, 1.224646799147352961E-16, -1.000000000000000000 ) ) ;
#159 = AXIS2_PLACEMENT_3D ( 'NONE', #237, #140, #141 ) ;
#160 = AXIS2_PLACEMENT_3D ( 'NONE', #14, #145, #18 ) ;
#161 = EDGE_LOOP ( 'NONE', ( #28 ) ) ;
#162 = PRODUCT_RELATED_PRODUCT_CATEGORY ( 'detail', '', ( #117 ) ) ;
#163 = DATE_TIME_ROLE ( 'creation_date' ) ;
#164 = COORDINATED_UNIVERSAL_TIME_OFFSET ( 1, 0, .AHEAD. ) ;
#165 = CARTESIAN_POINT ( 'NONE',  ( 3.662358977088121327E-16, 0.1430575426122343563, 0.1048941300743599786 ) ) ;
#166 = AXIS2_PLACEMENT_3D ( 'NONE', #124, #49, #207 ) ;
#167 = CC_DESIGN_PERSON_AND_ORGANIZATION_ASSIGNMENT ( #58, #57, ( #177 ) ) ;
#168 = FACE_OUTER_BOUND ( 'NONE', #112, .T. ) ;
#169 = EDGE_LOOP ( 'NONE', ( #239 ) ) ;
#170 = FACE_OUTER_BOUND ( 'NONE', #206, .T. ) ;
#171 = CYLINDRICAL_SURFACE ( 'NONE', #222, 1.500000000000000000 ) ;
#172 = FACE_OUTER_BOUND ( 'NONE', #95, .T. ) ;
#173 = CARTESIAN_POINT ( 'NONE',  ( 7.087252084467399533E-15, 0.7499999999999995559, 2.029869673258997587 ) ) ;
#174 = CARTESIAN_POINT ( 'NONE',  ( 0.0000000000000000000, 0.0000000000000000000, 0.0000000000000000000 ) ) ;
#175 = CARTESIAN_POINT ( 'NONE',  ( 1.316288464743861212E-13, 1.499999999999998446, 37.69999999999999574 ) ) ;
#176 = EDGE_CURVE ( 'NONE', #147, #147, #13, .T. ) ;
#177 = PRODUCT_DEFINITION_FORMATION_WITH_SPECIFIED_SOURCE ( 'ANY', '', #117, .NOT_KNOWN. ) ;
#178 = CALENDAR_DATE ( 2021, 24, 11 ) ;
#179 = PERSON_AND_ORGANIZATION ( #180, #29 ) ;
#180 = PERSON ( 'UNSPECIFIED', 'UNSPECIFIED', 'UNSPECIFIED', ('UNSPECIFIED'), ('UNSPECIFIED'), ('UNSPECIFIED') ) ;
#181 = APPROVAL_DATE_TIME ( #76, #212 ) ;
#182 = DATE_TIME_ROLE ( 'classification_date' ) ;
#183 = CARTESIAN_POINT ( 'NONE',  ( 1.187103655206665499E-14, 0.7499999999999988898, 3.400000000000000799 ) ) ;
#184 = ADVANCED_FACE ( 'NONE', ( #84, #188 ), #199, .T. ) ;
#185 = DATE_AND_TIME ( #132, #133 ) ;
#186 = EDGE_CURVE ( 'NONE', #223, #223, #40, .T. ) ;
#187 = ORIENTED_EDGE ( 'NONE', *, *, #216, .F. ) ;
#188 = FACE_OUTER_BOUND ( 'NONE', #85, .T. ) ;
#189 = ORIENTED_EDGE ( 'NONE', *, *, #70, .F. ) ;
#190 = DIRECTION ( 'NONE',  ( 0.0000000000000000000, 1.000000000000000000, 0.0000000000000000000 ) ) ;
#191 = DIRECTION ( 'NONE',  ( 3.491481338843133355E-15, -1.224646799147352961E-16, 1.000000000000000000 ) ) ;
#192 = AXIS2_PLACEMENT_3D ( 'NONE', #63, #155, #7 ) ;
#193 = FACE_OUTER_BOUND ( 'NONE', #228, .T. ) ;
#194 = UNCERTAINTY_MEASURE_WITH_UNIT (LENGTH_MEASURE( 1.000000000000000082E-05 ), #127, 'distance_accuracy_value', 'NONE');
#195 = DIRECTION ( 'NONE',  ( -3.491481338843133355E-15, 1.224646799147352961E-16, -1.000000000000000000 ) ) ;
#196 = EDGE_LOOP ( 'NONE', ( #105 ) ) ;
#197 = APPROVAL ( #203, 'UNSPECIFIED' ) ;
#198 = APPLICATION_CONTEXT ( 'configuration controlled 3d designs of mechanical parts and assemblies' ) ;
#199 = CONICAL_SURFACE ( 'NONE', #125, 0.7499999999999997780, 0.3054326190990009349 ) ;
#200 = LOCAL_TIME ( 8, 10, 5.000000000000000000, #75 ) ;
#201 = DIRECTION ( 'NONE',  ( -3.491481338843133355E-15, 1.224646799147352961E-16, -1.000000000000000000 ) ) ;
#202 = CARTESIAN_POINT ( 'NONE',  ( 2.367900757518974887E-14, 1.499999999999996225, 6.781937314617165313 ) ) ;
#203 = APPROVAL_STATUS ( 'not_yet_approved' ) ;
#204 = DATE_AND_TIME ( #72, #41 ) ;
#205 = CIRCLE ( 'NONE', #100, 1.500000000000003109 ) ;
#206 = EDGE_LOOP ( 'NONE', ( #217 ) ) ;
#207 = DIRECTION ( 'NONE',  ( -4.275831445896957731E-31, -1.000000000000000000, -1.224646799147352961E-16 ) ) ;
#208 = EDGE_LOOP ( 'NONE', ( #189 ) ) ;
#209 = FACE_BOUND ( 'NONE', #23, .T. ) ;
#210 = SPHERICAL_SURFACE ( 'NONE', #20, 0.1500000000000000500 ) ;
#211 = DESIGN_CONTEXT ( 'detailed design', #92, 'design' ) ;
#212 = APPROVAL ( #2, 'UNSPECIFIED' ) ;
#213 = CARTESIAN_POINT ( 'NONE',  ( 1.326762908760390423E-13, 8.998558695971097751E-33, 38.00000000000000000 ) ) ;
#214 = LOCAL_TIME ( 8, 10, 5.000000000000000000, #67 ) ;
#215 = DIRECTION ( 'NONE',  ( 4.275831445896958607E-31, 1.000000000000000000, 1.224646799147352961E-16 ) ) ;
#216 = EDGE_CURVE ( 'NONE', #94, #94, #16, .T. ) ;
#217 = ORIENTED_EDGE ( 'NONE', *, *, #131, .F. ) ;
#218 = PLANE ( 'NONE',  #166 ) ;
#219 = DATE_AND_TIME ( #107, #214 ) ;
#220 = CARTESIAN_POINT ( 'NONE',  ( 7.087252084467399533E-15, 0.7499999999999995559, 2.029869673258997587 ) ) ;
#221 = CALENDAR_DATE ( 2021, 24, 11 ) ;
#222 = AXIS2_PLACEMENT_3D ( 'NONE', #174, #195, #98 ) ;
#223 = VERTEX_POINT ( 'NONE', #165 ) ;
#224 = PERSON_AND_ORGANIZATION ( #180, #29 ) ;
#225 = AXIS2_PLACEMENT_3D ( 'NONE', #232, #44, #157 ) ;
#226 = ADVANCED_FACE ( 'NONE', ( #83, #168 ), #81, .F. ) ;
#227 = APPROVAL_ROLE ( '' ) ;
#228 = EDGE_LOOP ( 'NONE', ( #9 ) ) ;
#229 = AXIS2_PLACEMENT_3D ( 'NONE', #80, #158, #137 ) ;
#230 = APPROVAL_PERSON_ORGANIZATION ( #110, #60, #227 ) ;
#231 = ADVANCED_FACE ( 'NONE', ( #193, #209 ), #120, .T. ) ;
#232 = CARTESIAN_POINT ( 'NONE',  ( 7.087252084467399533E-15, -2.485873398042914469E-16, 2.029869673258997587 ) ) ;
#233 = DIRECTION ( 'NONE',  ( 3.491481338843133355E-15, -1.224646799147352961E-16, 1.000000000000000000 ) ) ;
#234 = CARTESIAN_POINT ( 'NONE',  ( 0.0000000000000000000, 0.0000000000000000000, 0.0000000000000000000 ) ) ;
#236 = ADVANCED_FACE ( 'NONE', ( #170, #99 ), #45, .T. ) ;
#235 = AXIS2_PLACEMENT_3D ( 'NONE', #27, #233, #4 ) ;
#237 = CARTESIAN_POINT ( 'NONE',  ( 7.087252084467399533E-15, -2.485873398042914469E-16, 2.029869673258997587 ) ) ;
#238 = ORIENTED_EDGE ( 'NONE', *, *, #70, .T. ) ;
#239 = ORIENTED_EDGE ( 'NONE', *, *, #186, .T. ) ;
#240 = APPROVAL_ROLE ( '' ) ;
#241 = CIRCLE ( 'NONE', #192, 1.200000000000003064 ) ;
#242 = SHAPE_DEFINITION_REPRESENTATION ( #134, #54 ) ;
#243 = CC_DESIGN_DATE_AND_TIME_ASSIGNMENT ( #185, #182, ( #17 ) ) ;
ENDSEC;
END-ISO-10303-21;
