ISO-10303-21;
HEADER;
FILE_DESCRIPTION (( 'STEP AP203' ),
    '1' );
FILE_NAME ('959719.step',
    '2021-11-24T07:10:05',
    ( '' ),
    ( '' ),
    'SwSTEP 2.0',
    'SolidWorks 2019',
    '' );
FILE_SCHEMA (( 'CONFIG_CONTROL_DESIGN' ));
ENDSEC;

DATA;
#1 = DIRECTION ( 'NONE',  ( 0.0000000000000000000, 1.000000000000000000, 0.0000000000000000000 ) ) ;
#2 = DIRECTION ( 'NONE',  ( -3.491481338843133355E-15, 1.224646799147352961E-16, -1.000000000000000000 ) ) ;
#3 = CARTESIAN_POINT ( 'NONE',  ( 1.326762908760390423E-13, -4.653657836759941152E-15, 38.00000000000000000 ) ) ;
#4 = AXIS2_PLACEMENT_3D ( 'NONE', #35, #220, #56 ) ;
#5 = VERTEX_POINT ( 'NONE', #208 ) ;
#6 = PERSON_AND_ORGANIZATION_ROLE ( 'design_owner' ) ;
#7 = CALENDAR_DATE ( 2021, 24, 11 ) ;
#8 = ORIENTED_EDGE ( 'NONE', *, *, #212, .T. ) ;
#9 = CALENDAR_DATE ( 2021, 24, 11 ) ;
#10 = AXIS2_PLACEMENT_3D ( 'NONE', #85, #129, #207 ) ;
#11 = EDGE_LOOP ( 'NONE', ( #122 ) ) ;
#12 = EDGE_CURVE ( 'NONE', #209, #209, #223, .T. ) ;
#13 = FACE_BOUND ( 'NONE', #48, .T. ) ;
#14 = UNCERTAINTY_MEASURE_WITH_UNIT (LENGTH_MEASURE( 1.000000000000000082E-05 ), #60, 'distance_accuracy_value', 'NONE');
#15 = FACE_OUTER_BOUND ( 'NONE', #157, .T. ) ;
#16 = PLANE ( 'NONE',  #224 ) ;
#17 = AXIS2_PLACEMENT_3D ( 'NONE', #81, #162, #50 ) ;
#18 = AXIS2_PLACEMENT_3D ( 'NONE', #58, #46, #196 ) ;
#19 = SPHERICAL_SURFACE ( 'NONE', #10, 0.1000000000000000333 ) ;
#20 = FACE_OUTER_BOUND ( 'NONE', #177, .T. ) ;
#21 = CARTESIAN_POINT ( 'NONE',  ( 2.367900757518974887E-14, 1.499999999999996225, 6.781937314617165313 ) ) ;
#22 = VERTEX_POINT ( 'NONE', #154 ) ;
#23 = DATE_AND_TIME ( #7, #62 ) ;
#24 = CALENDAR_DATE ( 2021, 24, 11 ) ;
#25 = APPROVAL_STATUS ( 'not_yet_approved' ) ;
#26 = CARTESIAN_POINT ( 'NONE',  ( 1.187103655206665499E-14, 0.7499999999999988898, 3.400000000000000799 ) ) ;
#27 = LOCAL_TIME ( 8, 10, 5.000000000000000000, #214 ) ;
#28 = EDGE_LOOP ( 'NONE', ( #175 ) ) ;
#29 = PERSON_AND_ORGANIZATION_ROLE ( 'creator' ) ;
#30 = ORIENTED_EDGE ( 'NONE', *, *, #12, .F. ) ;
#31 = CARTESIAN_POINT ( 'NONE',  ( 7.493225739684087693E-15, -2.628269787755254432E-16, 2.146145149430152888 ) ) ;
#32 = FACE_OUTER_BOUND ( 'NONE', #202, .T. ) ;
#33 = AXIS2_PLACEMENT_3D ( 'NONE', #3, #106, #166 ) ;
#34 = DIRECTION ( 'NONE',  ( -3.491481338843133355E-15, 1.224646799147352961E-16, -1.000000000000000000 ) ) ;
#35 = CARTESIAN_POINT ( 'NONE',  ( 1.187103655206665499E-14, -4.163799117101000559E-16, 3.400000000000000799 ) ) ;
#36 = EDGE_CURVE ( 'NONE', #231, #231, #70, .T. ) ;
#37 = FACE_OUTER_BOUND ( 'NONE', #101, .T. ) ;
#38 = ADVANCED_FACE ( 'NONE', ( #165, #130 ), #218, .T. ) ;
#39 = DIRECTION ( 'NONE',  ( -4.275831445896957731E-31, -1.000000000000000000, -1.224646799147352961E-16 ) ) ;
#40 = DIRECTION ( 'NONE',  ( 0.0000000000000000000, 0.0000000000000000000, 1.000000000000000000 ) ) ;
#41 = DATE_AND_TIME ( #211, #92 ) ;
#42 = APPROVAL_PERSON_ORGANIZATION ( #195, #115, #96 ) ;
#43 =( NAMED_UNIT ( * ) PLANE_ANGLE_UNIT ( ) SI_UNIT ( $, .RADIAN. ) );
#44 = COORDINATED_UNIVERSAL_TIME_OFFSET ( 1, 0, .AHEAD. ) ;
#45 = DATE_AND_TIME ( #76, #27 ) ;
#46 = DIRECTION ( 'NONE',  ( -3.491481338843133355E-15, 1.224646799147352961E-16, -1.000000000000000000 ) ) ;
#47 = PERSON_AND_ORGANIZATION ( #221, #103 ) ;
#48 = EDGE_LOOP ( 'NONE', ( #118 ) ) ;
#49 = PRODUCT_DEFINITION_SHAPE ( 'NONE', 'NONE',  #148 ) ;
#50 = DIRECTION ( 'NONE',  ( 0.0000000000000000000, 1.000000000000000000, 0.0000000000000000000 ) ) ;
#51 = FACE_OUTER_BOUND ( 'NONE', #11, .T. ) ;
#52 = ADVANCED_FACE ( 'NONE', ( #13, #37 ), #98, .T. ) ;
#53 = FACE_OUTER_BOUND ( 'NONE', #216, .T. ) ;
#54 = DIRECTION ( 'NONE',  ( 5.048484099177080866E-31, 1.000000000000000000, 1.421021944239985973E-16 ) ) ;
#55 = CIRCLE ( 'NONE', #74, 1.200000000000003064 ) ;
#56 = DIRECTION ( 'NONE',  ( 0.0000000000000000000, 1.000000000000000000, 0.0000000000000000000 ) ) ;
#57 = PRODUCT ( '959719', '959719', '', ( #61 ) ) ;
#58 = CARTESIAN_POINT ( 'NONE',  ( 7.493225739684087693E-15, -2.628269787755254432E-16, 2.146145149430152888 ) ) ;
#59 = LOCAL_TIME ( 8, 10, 5.000000000000000000, #151 ) ;
#60 =( LENGTH_UNIT ( ) NAMED_UNIT ( * ) SI_UNIT ( .MILLI., .METRE. ) );
#61 = MECHANICAL_CONTEXT ( 'NONE', #134, 'mechanical' ) ;
#62 = LOCAL_TIME ( 8, 10, 5.000000000000000000, #192 ) ;
#63 = ORIENTED_EDGE ( 'NONE', *, *, #94, .T. ) ;
#64 = DIRECTION ( 'NONE',  ( 3.491481338843133355E-15, -1.224646799147352961E-16, 1.000000000000000000 ) ) ;
#65 = DESIGN_CONTEXT ( 'detailed design', #188, 'design' ) ;
#66 = DIRECTION ( 'NONE',  ( -3.491481338843133355E-15, 1.224646799147352961E-16, -1.000000000000000000 ) ) ;
#67 = FACE_OUTER_BOUND ( 'NONE', #28, .T. ) ;
#68 = FACE_OUTER_BOUND ( 'NONE', #97, .T. ) ;
#69 = DIRECTION ( 'NONE',  ( 0.0000000000000000000, -1.000000000000000000, 0.0000000000000000000 ) ) ;
#70 = CIRCLE ( 'NONE', #4, 0.7499999999999993339 ) ;
#71 = CC_DESIGN_PERSON_AND_ORGANIZATION_ASSIGNMENT ( #111, #194, ( #121 ) ) ;
#72 = VERTEX_POINT ( 'NONE', #187 ) ;
#73 = EDGE_CURVE ( 'NONE', #72, #72, #135, .T. ) ;
#74 = AXIS2_PLACEMENT_3D ( 'NONE', #86, #235, #227 ) ;
#75 = APPROVAL_DATE_TIME ( #41, #189 ) ;
#76 = CALENDAR_DATE ( 2021, 24, 11 ) ;
#77 = AXIS2_PLACEMENT_3D ( 'NONE', #31, #66, #1 ) ;
#78 = ORIENTED_EDGE ( 'NONE', *, *, #186, .T. ) ;
#79 = EDGE_LOOP ( 'NONE', ( #236 ) ) ;
#80 = CLOSED_SHELL ( 'NONE', ( #158, #126, #142, #123, #38, #197 ) ) ;
#81 = CARTESIAN_POINT ( 'NONE',  ( 2.367900757518974887E-14, -8.305477824363906558E-16, 6.781937314617165313 ) ) ;
#82 = DIRECTION ( 'NONE',  ( -4.275831445896957731E-31, -1.000000000000000000, -1.224646799147352961E-16 ) ) ;
#83 = CYLINDRICAL_SURFACE ( 'NONE', #105, 0.7499999999999995559 ) ;
#84 = PRODUCT_RELATED_PRODUCT_CATEGORY ( 'detail', '', ( #57 ) ) ;
#85 = CARTESIAN_POINT ( 'NONE',  ( 3.491481338843133355E-16, -1.224646799147353269E-17, 0.1000000000000000056 ) ) ;
#86 = CARTESIAN_POINT ( 'NONE',  ( 1.326762908760390423E-13, -4.653657836759941152E-15, 38.00000000000000000 ) ) ;
#87 = DIRECTION ( 'NONE',  ( 1.000000000000000000, 0.0000000000000000000, 0.0000000000000000000 ) ) ;
#88 = CC_DESIGN_APPROVAL ( #189, ( #121 ) ) ;
#89 = APPROVAL_DATE_TIME ( #23, #160 ) ;
#90 = DATE_TIME_ROLE ( 'classification_date' ) ;
#91 = CC_DESIGN_PERSON_AND_ORGANIZATION_ASSIGNMENT ( #215, #120, ( #153 ) ) ;
#92 = LOCAL_TIME ( 8, 10, 5.000000000000000000, #44 ) ;
#93 = ADVANCED_BREP_SHAPE_REPRESENTATION ( '959719', ( #179, #95, #163 ), #168 ) ;
#94 = EDGE_CURVE ( 'NONE', #99, #99, #119, .T. ) ;
#95 = MANIFOLD_SOLID_BREP ( 'Corps-Déplacer/Copier2[2]', #199 ) ;
#96 = APPROVAL_ROLE ( '' ) ;
#97 = EDGE_LOOP ( 'NONE', ( #198 ) ) ;
#98 = CONICAL_SURFACE ( 'NONE', #242, 0.7499999999999997780, 0.3054326190990009349 ) ;
#99 = VERTEX_POINT ( 'NONE', #21 ) ;
#100 = CC_DESIGN_APPROVAL ( #160, ( #148 ) ) ;
#101 = EDGE_LOOP ( 'NONE', ( #176 ) ) ;
#102 = EDGE_LOOP ( 'NONE', ( #234 ) ) ;
#103 = ORGANIZATION ( 'UNSPECIFIED', 'UNSPECIFIED', '' ) ;
#104 = DIRECTION ( 'NONE',  ( 3.491481338843133355E-15, -1.224646799147352961E-16, 1.000000000000000000 ) ) ;
#105 = AXIS2_PLACEMENT_3D ( 'NONE', #144, #222, #239 ) ;
#106 = DIRECTION ( 'NONE',  ( -3.491481338843133355E-15, 1.224646799147352961E-16, -1.000000000000000000 ) ) ;
#107 = DIRECTION ( 'NONE',  ( 4.275831445896957731E-31, 1.000000000000000000, 1.224646799147353207E-16 ) ) ;
#108 = DIRECTION ( 'NONE',  ( -3.491481338843133355E-15, 1.224646799147352961E-16, -1.000000000000000000 ) ) ;
#109 = PERSON_AND_ORGANIZATION ( #221, #103 ) ;
#110 = APPLICATION_PROTOCOL_DEFINITION ( 'international standard', 'config_control_design', 1994, #134 ) ;
#111 = PERSON_AND_ORGANIZATION ( #221, #103 ) ;
#112 = APPROVAL_ROLE ( '' ) ;
#113 = CC_DESIGN_PERSON_AND_ORGANIZATION_ASSIGNMENT ( #170, #152, ( #148 ) ) ;
#114 = APPROVAL_PERSON_ORGANIZATION ( #132, #160, #112 ) ;
#115 = APPROVAL ( #25, 'UNSPECIFIED' ) ;
#116 = DATE_TIME_ROLE ( 'creation_date' ) ;
#117 = ORIENTED_EDGE ( 'NONE', *, *, #229, .T. ) ;
#118 = ORIENTED_EDGE ( 'NONE', *, *, #73, .F. ) ;
#119 = CIRCLE ( 'NONE', #17, 1.499999999999996891 ) ;
#120 = PERSON_AND_ORGANIZATION_ROLE ( 'design_supplier' ) ;
#121 = SECURITY_CLASSIFICATION ( '', '', #131 ) ;
#122 = ORIENTED_EDGE ( 'NONE', *, *, #36, .T. ) ;
#123 = ADVANCED_FACE ( 'NONE', ( #68, #20 ), #125, .T. ) ;
#124 = CC_DESIGN_SECURITY_CLASSIFICATION ( #121, ( #153 ) ) ;
#125 = CYLINDRICAL_SURFACE ( 'NONE', #213, 1.500000000000000000 ) ;
#126 = ADVANCED_FACE ( 'NONE', ( #67, #51 ), #83, .T. ) ;
#127 = FACE_OUTER_BOUND ( 'NONE', #201, .T. ) ;
#128 = DIRECTION ( 'NONE',  ( -3.491481338843133355E-15, 1.224646799147352961E-16, -1.000000000000000000 ) ) ;
#129 = DIRECTION ( 'NONE',  ( 1.000000000000000000, -8.298529501018661104E-33, -3.491481338843132961E-15 ) ) ;
#130 = FACE_BOUND ( 'NONE', #138, .T. ) ;
#131 = SECURITY_CLASSIFICATION_LEVEL ( 'unclassified' ) ;
#132 = PERSON_AND_ORGANIZATION ( #221, #103 ) ;
#133 = CC_DESIGN_DATE_AND_TIME_ASSIGNMENT ( #45, #116, ( #148 ) ) ;
#134 = APPLICATION_CONTEXT ( 'configuration controlled 3d designs of mechanical parts and assemblies' ) ;
#135 = CIRCLE ( 'NONE', #228, 0.09537169507482298747 ) ;
#136 = DATE_AND_TIME ( #24, #59 ) ;
#137 = APPLICATION_PROTOCOL_DEFINITION ( 'international standard', 'config_control_design', 1994, #188 ) ;
#138 = EDGE_LOOP ( 'NONE', ( #8 ) ) ;
#139 = DATE_AND_TIME ( #9, #171 ) ;
#140 = CIRCLE ( 'NONE', #150, 1.500000000000003109 ) ;
#141 = CC_DESIGN_PERSON_AND_ORGANIZATION_ASSIGNMENT ( #47, #29, ( #153 ) ) ;
#142 = ADVANCED_FACE ( 'NONE', ( #15, #32 ), #204, .F. ) ;
#143 = PLANE ( 'NONE',  #238 ) ;
#144 = CARTESIAN_POINT ( 'NONE',  ( 0.0000000000000000000, 0.0000000000000000000, 0.0000000000000000000 ) ) ;
#145 = DIRECTION ( 'NONE',  ( 4.355100981429075892E-31, 1.000000000000000000, 1.224646799147352961E-16 ) ) ;
#146 = DIRECTION ( 'NONE',  ( -3.491481338843133355E-15, 1.224646799147352961E-16, -1.000000000000000000 ) ) ;
#147 = DIRECTION ( 'NONE',  ( 0.0000000000000000000, 1.000000000000000000, 0.0000000000000000000 ) ) ;
#148 = PRODUCT_DEFINITION ( 'UNKNOWN', '', #153, #65 ) ;
#149 = PERSON_AND_ORGANIZATION ( #221, #103 ) ;
#150 = AXIS2_PLACEMENT_3D ( 'NONE', #225, #34, #147 ) ;
#151 = COORDINATED_UNIVERSAL_TIME_OFFSET ( 1, 0, .AHEAD. ) ;
#152 = PERSON_AND_ORGANIZATION_ROLE ( 'creator' ) ;
#153 = PRODUCT_DEFINITION_FORMATION_WITH_SPECIFIED_SOURCE ( 'ANY', '', #57, .NOT_KNOWN. ) ;
#154 = CARTESIAN_POINT ( 'NONE',  ( 7.493225739684087693E-15, 0.7499999999999995559, 2.146145149430152888 ) ) ;
#155 = ORIENTED_EDGE ( 'NONE', *, *, #36, .F. ) ;
#156 = CARTESIAN_POINT ( 'NONE',  ( 7.493225739684087693E-15, 0.7499999999999995559, 2.146145149430152888 ) ) ;
#157 = EDGE_LOOP ( 'NONE', ( #63 ) ) ;
#158 = ADVANCED_FACE ( 'NONE', ( #53 ), #164, .F. ) ;
#159 = AXIS2_PLACEMENT_3D ( 'NONE', #219, #104, #39 ) ;
#160 = APPROVAL ( #210, 'UNSPECIFIED' ) ;
#161 = CARTESIAN_POINT ( 'NONE',  ( 0.0000000000000000000, 0.0000000000000000000, 0.0000000000000000000 ) ) ;
#162 = DIRECTION ( 'NONE',  ( -3.491481338843133355E-15, 1.224646799147352961E-16, -1.000000000000000000 ) ) ;
#163 = AXIS2_PLACEMENT_3D ( 'NONE', #190, #40, #87 ) ;
#164 = PLANE ( 'NONE',  #159 ) ;
#165 = FACE_OUTER_BOUND ( 'NONE', #102, .T. ) ;
#166 = DIRECTION ( 'NONE',  ( 0.0000000000000000000, 1.000000000000000000, 0.0000000000000000000 ) ) ;
#167 = CARTESIAN_POINT ( 'NONE',  ( 1.316288464743861212E-13, 1.499999999999998446, 37.69999999999999574 ) ) ;
#168 =( GEOMETRIC_REPRESENTATION_CONTEXT ( 3 ) GLOBAL_UNCERTAINTY_ASSIGNED_CONTEXT ( ( #14 ) ) GLOBAL_UNIT_ASSIGNED_CONTEXT ( ( #60, #43, #226 ) ) REPRESENTATION_CONTEXT ( 'NONE', 'WORKASPACE' ) );
#169 = VERTEX_POINT ( 'NONE', #167 ) ;
#170 = PERSON_AND_ORGANIZATION ( #221, #103 ) ;
#171 = LOCAL_TIME ( 8, 10, 5.000000000000000000, #174 ) ;
#172 = APPROVAL_STATUS ( 'not_yet_approved' ) ;
#173 = EDGE_LOOP ( 'NONE', ( #237 ) ) ;
#174 = COORDINATED_UNIVERSAL_TIME_OFFSET ( 1, 0, .AHEAD. ) ;
#175 = ORIENTED_EDGE ( 'NONE', *, *, #229, .F. ) ;
#176 = ORIENTED_EDGE ( 'NONE', *, *, #12, .T. ) ;
#177 = EDGE_LOOP ( 'NONE', ( #78 ) ) ;
#178 = CARTESIAN_POINT ( 'NONE',  ( 7.493225739684087693E-15, -2.628269787755254432E-16, 2.146145149430152888 ) ) ;
#179 = MANIFOLD_SOLID_BREP ( 'Corps-Déplacer/Copier2[1]', #80 ) ;
#180 = CARTESIAN_POINT ( 'NONE',  ( 2.441572651392081213E-16, -8.563884042994068389E-18, 0.06992942004957332369 ) ) ;
#181 = CARTESIAN_POINT ( 'NONE',  ( 1.187103655206665183E-14, 0.0000000000000000000, 3.399999999999999911 ) ) ;
#182 = CIRCLE ( 'NONE', #18, 0.7499999999999997780 ) ;
#183 = FACE_OUTER_BOUND ( 'NONE', #79, .T. ) ;
#184 = ADVANCED_FACE ( 'NONE', ( #127 ), #16, .T. ) ;
#185 = DIRECTION ( 'NONE',  ( 4.275831445896957731E-31, 1.000000000000000000, 1.224646799147352961E-16 ) ) ;
#186 = EDGE_CURVE ( 'NONE', #169, #169, #140, .T. ) ;
#187 = CARTESIAN_POINT ( 'NONE',  ( 2.441572651392081706E-16, 0.09537169507482297359, 0.06992942004957333757 ) ) ;
#188 = APPLICATION_CONTEXT ( 'configuration controlled 3d designs of mechanical parts and assemblies' ) ;
#189 = APPROVAL ( #172, 'UNSPECIFIED' ) ;
#190 = CARTESIAN_POINT ( 'NONE',  ( 0.0000000000000000000, 0.0000000000000000000, 0.0000000000000000000 ) ) ;
#191 = SHAPE_DEFINITION_REPRESENTATION ( #49, #93 ) ;
#192 = COORDINATED_UNIVERSAL_TIME_OFFSET ( 1, 0, .AHEAD. ) ;
#193 = ADVANCED_FACE ( 'NONE', ( #206 ), #19, .T. ) ;
#194 = PERSON_AND_ORGANIZATION_ROLE ( 'classification_officer' ) ;
#195 = PERSON_AND_ORGANIZATION ( #221, #103 ) ;
#196 = DIRECTION ( 'NONE',  ( 0.0000000000000000000, 1.000000000000000000, 0.0000000000000000000 ) ) ;
#197 = ADVANCED_FACE ( 'NONE', ( #183 ), #143, .F. ) ;
#198 = ORIENTED_EDGE ( 'NONE', *, *, #94, .F. ) ;
#199 = CLOSED_SHELL ( 'NONE', ( #193, #52, #184 ) ) ;
#200 = APPROVAL_DATE_TIME ( #139, #115 ) ;
#201 = EDGE_LOOP ( 'NONE', ( #30 ) ) ;
#202 = EDGE_LOOP ( 'NONE', ( #155 ) ) ;
#203 = AXIS2_PLACEMENT_3D ( 'NONE', #181, #128, #145 ) ;
#204 = TOROIDAL_SURFACE ( 'NONE', #203, 8.749999999999998224, 8.000000000000000000 ) ;
#205 = CARTESIAN_POINT ( 'NONE',  ( 7.493225739684087693E-15, 5.624099184981959187E-33, 2.146145149430152888 ) ) ;
#206 = FACE_OUTER_BOUND ( 'NONE', #173, .T. ) ;
#207 = DIRECTION ( 'NONE',  ( 4.814824860968087881E-31, 1.000000000000000000, 1.355252715606880049E-16 ) ) ;
#208 = CARTESIAN_POINT ( 'NONE',  ( 1.326762908760390423E-13, 1.199999999999998623, 38.00000000000000000 ) ) ;
#209 = VERTEX_POINT ( 'NONE', #156 ) ;
#210 = APPROVAL_STATUS ( 'not_yet_approved' ) ;
#211 = CALENDAR_DATE ( 2021, 24, 11 ) ;
#212 = EDGE_CURVE ( 'NONE', #5, #5, #55, .T. ) ;
#213 = AXIS2_PLACEMENT_3D ( 'NONE', #161, #146, #107 ) ;
#214 = COORDINATED_UNIVERSAL_TIME_OFFSET ( 1, 0, .AHEAD. ) ;
#215 = PERSON_AND_ORGANIZATION ( #221, #103 ) ;
#216 = EDGE_LOOP ( 'NONE', ( #117 ) ) ;
#217 = CARTESIAN_POINT ( 'NONE',  ( 1.326762908760390423E-13, 8.998558695971097751E-33, 38.00000000000000000 ) ) ;
#218 = CONICAL_SURFACE ( 'NONE', #33, 1.200000000000003064, 0.7853981633974453924 ) ;
#219 = CARTESIAN_POINT ( 'NONE',  ( 7.493225739684087693E-15, 5.624099184981959187E-33, 2.146145149430152888 ) ) ;
#220 = DIRECTION ( 'NONE',  ( -3.491481338843133355E-15, 1.224646799147352961E-16, -1.000000000000000000 ) ) ;
#221 = PERSON ( 'UNSPECIFIED', 'UNSPECIFIED', 'UNSPECIFIED', ('UNSPECIFIED'), ('UNSPECIFIED'), ('UNSPECIFIED') ) ;
#222 = DIRECTION ( 'NONE',  ( -3.491481338843133355E-15, 1.224646799147352961E-16, -1.000000000000000000 ) ) ;
#223 = CIRCLE ( 'NONE', #77, 0.7499999999999997780 ) ;
#224 = AXIS2_PLACEMENT_3D ( 'NONE', #205, #64, #82 ) ;
#225 = CARTESIAN_POINT ( 'NONE',  ( 1.316288464743861212E-13, -4.616918432785520292E-15, 37.69999999999999574 ) ) ;
#226 =( NAMED_UNIT ( * ) SI_UNIT ( $, .STERADIAN. ) SOLID_ANGLE_UNIT ( ) );
#227 = DIRECTION ( 'NONE',  ( 0.0000000000000000000, 1.000000000000000000, 0.0000000000000000000 ) ) ;
#228 = AXIS2_PLACEMENT_3D ( 'NONE', #180, #2, #54 ) ;
#229 = EDGE_CURVE ( 'NONE', #22, #22, #182, .T. ) ;
#230 = APPROVAL_ROLE ( '' ) ;
#231 = VERTEX_POINT ( 'NONE', #26 ) ;
#233 = CC_DESIGN_APPROVAL ( #115, ( #153 ) ) ;
#232 = CC_DESIGN_DATE_AND_TIME_ASSIGNMENT ( #136, #90, ( #121 ) ) ;
#234 = ORIENTED_EDGE ( 'NONE', *, *, #186, .F. ) ;
#235 = DIRECTION ( 'NONE',  ( -3.491481338843133355E-15, 1.224646799147352961E-16, -1.000000000000000000 ) ) ;
#236 = ORIENTED_EDGE ( 'NONE', *, *, #212, .F. ) ;
#237 = ORIENTED_EDGE ( 'NONE', *, *, #73, .T. ) ;
#238 = AXIS2_PLACEMENT_3D ( 'NONE', #217, #108, #185 ) ;
#239 = DIRECTION ( 'NONE',  ( 4.275831445896958607E-31, 1.000000000000000000, 1.224646799147352961E-16 ) ) ;
#240 = DIRECTION ( 'NONE',  ( 3.491481338843133355E-15, -1.224646799147352961E-16, 1.000000000000000000 ) ) ;
#241 = CC_DESIGN_PERSON_AND_ORGANIZATION_ASSIGNMENT ( #109, #6, ( #57 ) ) ;
#242 = AXIS2_PLACEMENT_3D ( 'NONE', #178, #240, #69 ) ;
#243 = APPROVAL_PERSON_ORGANIZATION ( #149, #189, #230 ) ;
ENDSEC;
END-ISO-10303-21;
