ISO-10303-21;
HEADER;
FILE_DESCRIPTION (( 'STEP AP203' ),
    '1' );
FILE_NAME ('959718.step',
    '2021-11-24T07:10:04',
    ( '' ),
    ( '' ),
    'SwSTEP 2.0',
    'SolidWorks 2019',
    '' );
FILE_SCHEMA (( 'CONFIG_CONTROL_DESIGN' ));
ENDSEC;

DATA;
#1 = AXIS2_PLACEMENT_3D ( 'NONE', #174, #75, #79 ) ;
#2 = FACE_OUTER_BOUND ( 'NONE', #185, .T. ) ;
#3 = CC_DESIGN_SECURITY_CLASSIFICATION ( #196, ( #182 ) ) ;
#4 = FACE_OUTER_BOUND ( 'NONE', #204, .T. ) ;
#5 = DIRECTION ( 'NONE',  ( 0.0000000000000000000, -1.000000000000000000, 0.0000000000000000000 ) ) ;
#6 =( NAMED_UNIT ( * ) SI_UNIT ( $, .STERADIAN. ) SOLID_ANGLE_UNIT ( ) );
#7 = ADVANCED_FACE ( 'NONE', ( #220, #29 ), #115, .T. ) ;
#8 = CIRCLE ( 'NONE', #44, 1.200000000000003064 ) ;
#9 = APPROVAL_STATUS ( 'not_yet_approved' ) ;
#10 = CALENDAR_DATE ( 2021, 24, 11 ) ;
#11 = DIRECTION ( 'NONE',  ( -3.491481338843133355E-15, 1.224646799147352961E-16, -1.000000000000000000 ) ) ;
#12 = APPLICATION_CONTEXT ( 'configuration controlled 3d designs of mechanical parts and assemblies' ) ;
#13 = AXIS2_PLACEMENT_3D ( 'NONE', #192, #158, #46 ) ;
#14 = PRODUCT_RELATED_PRODUCT_CATEGORY ( 'detail', '', ( #40 ) ) ;
#15 = CARTESIAN_POINT ( 'NONE',  ( 1.220786325696039127E-16, -4.281942021497029572E-18, 0.03496471002478662021 ) ) ;
#16 = EDGE_LOOP ( 'NONE', ( #41 ) ) ;
#17 = CIRCLE ( 'NONE', #117, 0.7499999999999993339 ) ;
#18 = APPROVAL_PERSON_ORGANIZATION ( #203, #126, #152 ) ;
#19 = ADVANCED_BREP_SHAPE_REPRESENTATION ( '959718', ( #167, #164, #180 ), #206 ) ;
#20 = CARTESIAN_POINT ( 'NONE',  ( 7.899199394900779797E-15, 0.7499999999999996669, 2.262420625601309077 ) ) ;
#21 = FACE_OUTER_BOUND ( 'NONE', #56, .T. ) ;
#22 = LOCAL_TIME ( 8, 10, 4.000000000000000000, #233 ) ;
#23 = EDGE_CURVE ( 'NONE', #108, #108, #8, .T. ) ;
#24 = DIRECTION ( 'NONE',  ( 4.814824860968083502E-31, 1.000000000000000000, 1.355252715606878817E-16 ) ) ;
#25 = CARTESIAN_POINT ( 'NONE',  ( 7.899199394900781374E-15, 1.308224723921575396E-15, 2.262420625601309521 ) ) ;
#26 = CARTESIAN_POINT ( 'NONE',  ( 1.326762908760390423E-13, 1.199999999999998623, 38.00000000000000000 ) ) ;
#27 = CIRCLE ( 'NONE', #170, 0.7500000000000000000 ) ;
#28 = DATE_AND_TIME ( #10, #162 ) ;
#29 = FACE_OUTER_BOUND ( 'NONE', #209, .T. ) ;
#30 = PERSON_AND_ORGANIZATION ( #55, #91 ) ;
#31 = FACE_OUTER_BOUND ( 'NONE', #202, .T. ) ;
#32 = APPROVAL_ROLE ( '' ) ;
#33 = EDGE_CURVE ( 'NONE', #154, #154, #69, .T. ) ;
#34 = CARTESIAN_POINT ( 'NONE',  ( 1.326762908760390423E-13, 8.998558695971097751E-33, 38.00000000000000000 ) ) ;
#35 = APPROVAL_STATUS ( 'not_yet_approved' ) ;
#36 = ORIENTED_EDGE ( 'NONE', *, *, #23, .T. ) ;
#37 = ADVANCED_FACE ( 'NONE', ( #31 ), #84, .F. ) ;
#38 = DIRECTION ( 'NONE',  ( 0.0000000000000000000, 1.000000000000000000, 0.0000000000000000000 ) ) ;
#39 = EDGE_LOOP ( 'NONE', ( #36 ) ) ;
#40 = PRODUCT ( '959718', '959718', '', ( #194 ) ) ;
#41 = ORIENTED_EDGE ( 'NONE', *, *, #33, .T. ) ;
#42 = EDGE_CURVE ( 'NONE', #187, #187, #27, .T. ) ;
#43 = CARTESIAN_POINT ( 'NONE',  ( 1.220786325696039374E-16, 0.04768584753741163945, 0.03496471002478662715 ) ) ;
#44 = AXIS2_PLACEMENT_3D ( 'NONE', #125, #70, #38 ) ;
#45 = VERTEX_POINT ( 'NONE', #189 ) ;
#46 = DIRECTION ( 'NONE',  ( -4.275831445896957731E-31, -1.000000000000000000, -1.224646799147352961E-16 ) ) ;
#47 = DIRECTION ( 'NONE',  ( 4.355100981429075892E-31, 1.000000000000000000, 1.224646799147352961E-16 ) ) ;
#48 = FACE_OUTER_BOUND ( 'NONE', #149, .T. ) ;
#49 = COORDINATED_UNIVERSAL_TIME_OFFSET ( 1, 0, .AHEAD. ) ;
#50 = DATE_TIME_ROLE ( 'classification_date' ) ;
#51 = PERSON_AND_ORGANIZATION ( #55, #91 ) ;
#52 = PERSON_AND_ORGANIZATION_ROLE ( 'classification_officer' ) ;
#53 = ORIENTED_EDGE ( 'NONE', *, *, #103, .F. ) ;
#54 = CC_DESIGN_APPROVAL ( #126, ( #196 ) ) ;
#55 = PERSON ( 'UNSPECIFIED', 'UNSPECIFIED', 'UNSPECIFIED', ('UNSPECIFIED'), ('UNSPECIFIED'), ('UNSPECIFIED') ) ;
#56 = EDGE_LOOP ( 'NONE', ( #183 ) ) ;
#57 = DESIGN_CONTEXT ( 'detailed design', #12, 'design' ) ;
#58 = APPROVAL ( #200, 'UNSPECIFIED' ) ;
#59 = FACE_BOUND ( 'NONE', #137, .T. ) ;
#60 = CARTESIAN_POINT ( 'NONE',  ( 1.187103655206665499E-14, 0.7499999999999988898, 3.400000000000000799 ) ) ;
#61 = ADVANCED_FACE ( 'NONE', ( #4, #2 ), #173, .T. ) ;
#62 = CLOSED_SHELL ( 'NONE', ( #143, #61, #221, #7, #193, #37 ) ) ;
#63 = DIRECTION ( 'NONE',  ( -3.491481338843133355E-15, 1.224646799147352961E-16, -1.000000000000000000 ) ) ;
#64 = DIRECTION ( 'NONE',  ( 0.0000000000000000000, 1.000000000000000000, 0.0000000000000000000 ) ) ;
#65 = DIRECTION ( 'NONE',  ( 0.0000000000000000000, 1.000000000000000000, 0.0000000000000000000 ) ) ;
#66 = APPROVAL_DATE_TIME ( #28, #74 ) ;
#67 = CARTESIAN_POINT ( 'NONE',  ( 0.0000000000000000000, 0.0000000000000000000, 0.0000000000000000000 ) ) ;
#68 = CIRCLE ( 'NONE', #139, 0.7500000000000000000 ) ;
#69 = CIRCLE ( 'NONE', #98, 0.04768584753741164639 ) ;
#70 = DIRECTION ( 'NONE',  ( -3.491481338843133355E-15, 1.224646799147352961E-16, -1.000000000000000000 ) ) ;
#71 = ADVANCED_FACE ( 'NONE', ( #215 ), #90, .T. ) ;
#72 = EDGE_LOOP ( 'NONE', ( #217 ) ) ;
#73 = CARTESIAN_POINT ( 'NONE',  ( 1.326762908760390423E-13, -4.653657836759941152E-15, 38.00000000000000000 ) ) ;
#74 = APPROVAL ( #9, 'UNSPECIFIED' ) ;
#75 = DIRECTION ( 'NONE',  ( -3.491481338843133355E-15, 1.224646799147352961E-16, -1.000000000000000000 ) ) ;
#76 = LOCAL_TIME ( 8, 10, 4.000000000000000000, #49 ) ;
#77 = DIRECTION ( 'NONE',  ( 4.275831445896958607E-31, 1.000000000000000000, 1.224646799147352961E-16 ) ) ;
#78 = PLANE ( 'NONE',  #210 ) ;
#79 = DIRECTION ( 'NONE',  ( 0.0000000000000000000, 1.000000000000000000, 0.0000000000000000000 ) ) ;
#80 = CC_DESIGN_APPROVAL ( #74, ( #182 ) ) ;
#81 = PERSON_AND_ORGANIZATION_ROLE ( 'creator' ) ;
#82 = COORDINATED_UNIVERSAL_TIME_OFFSET ( 1, 0, .AHEAD. ) ;
#83 = CALENDAR_DATE ( 2021, 24, 11 ) ;
#84 = PLANE ( 'NONE',  #146 ) ;
#85 = APPROVAL_DATE_TIME ( #181, #58 ) ;
#86 = CALENDAR_DATE ( 2021, 24, 11 ) ;
#87 = ORIENTED_EDGE ( 'NONE', *, *, #112, .F. ) ;
#88 = ADVANCED_FACE ( 'NONE', ( #59, #157 ), #195, .T. ) ;
#89 = CARTESIAN_POINT ( 'NONE',  ( 1.745740669421566678E-16, -6.123233995736766344E-18, 0.04999999999999999584 ) ) ;
#90 = SPHERICAL_SURFACE ( 'NONE', #163, 0.05000000000000006523 ) ;
#91 = ORGANIZATION ( 'UNSPECIFIED', 'UNSPECIFIED', '' ) ;
#92 = DIRECTION ( 'NONE',  ( 0.0000000000000000000, 1.000000000000000000, 0.0000000000000000000 ) ) ;
#93 = PRODUCT_DEFINITION_SHAPE ( 'NONE', 'NONE',  #208 ) ;
#94 = DIRECTION ( 'NONE',  ( 0.0000000000000000000, 1.000000000000000000, 0.0000000000000000000 ) ) ;
#95 = CC_DESIGN_PERSON_AND_ORGANIZATION_ASSIGNMENT ( #223, #140, ( #40 ) ) ;
#96 = FACE_BOUND ( 'NONE', #39, .T. ) ;
#97 = APPLICATION_PROTOCOL_DEFINITION ( 'international standard', 'config_control_design', 1994, #12 ) ;
#98 = AXIS2_PLACEMENT_3D ( 'NONE', #15, #145, #141 ) ;
#99 = CC_DESIGN_DATE_AND_TIME_ASSIGNMENT ( #123, #50, ( #196 ) ) ;
#100 =( NAMED_UNIT ( * ) PLANE_ANGLE_UNIT ( ) SI_UNIT ( $, .RADIAN. ) );
#101 = CARTESIAN_POINT ( 'NONE',  ( 7.899199394900779797E-15, 0.7499999999999996669, 2.262420625601309077 ) ) ;
#102 = PERSON_AND_ORGANIZATION ( #55, #91 ) ;
#103 = EDGE_CURVE ( 'NONE', #228, #228, #17, .T. ) ;
#104 = TOROIDAL_SURFACE ( 'NONE', #111, 8.749999999999998224, 8.000000000000000000 ) ;
#105 = ORIENTED_EDGE ( 'NONE', *, *, #33, .F. ) ;
#106 = ORIENTED_EDGE ( 'NONE', *, *, #23, .F. ) ;
#107 = EDGE_LOOP ( 'NONE', ( #53 ) ) ;
#108 = VERTEX_POINT ( 'NONE', #26 ) ;
#109 = CARTESIAN_POINT ( 'NONE',  ( 7.899199394900779797E-15, -2.770666177467595382E-16, 2.262420625601309077 ) ) ;
#110 = CARTESIAN_POINT ( 'NONE',  ( 7.899199394900779797E-15, -2.770666177467595382E-16, 2.262420625601309077 ) ) ;
#111 = AXIS2_PLACEMENT_3D ( 'NONE', #135, #129, #47 ) ;
#112 = EDGE_CURVE ( 'NONE', #45, #45, #225, .T. ) ;
#113 = DIRECTION ( 'NONE',  ( -3.491481338843133355E-15, 1.224646799147352961E-16, -1.000000000000000000 ) ) ;
#114 = DIRECTION ( 'NONE',  ( 3.491481338843133355E-15, -1.224646799147352961E-16, 1.000000000000000000 ) ) ;
#115 = CYLINDRICAL_SURFACE ( 'NONE', #177, 1.500000000000000000 ) ;
#116 = DIRECTION ( 'NONE',  ( 0.0000000000000000000, 0.0000000000000000000, 1.000000000000000000 ) ) ;
#117 = AXIS2_PLACEMENT_3D ( 'NONE', #229, #211, #92 ) ;
#118 = CC_DESIGN_DATE_AND_TIME_ASSIGNMENT ( #199, #165, ( #208 ) ) ;
#119 = DIRECTION ( 'NONE',  ( 1.000000000000000000, 0.0000000000000000000, 0.0000000000000000000 ) ) ;
#120 = VERTEX_POINT ( 'NONE', #101 ) ;
#121 = AXIS2_PLACEMENT_3D ( 'NONE', #110, #114, #5 ) ;
#122 = CONICAL_SURFACE ( 'NONE', #237, 1.200000000000003064, 0.7853981633974453924 ) ;
#123 = DATE_AND_TIME ( #83, #159 ) ;
#124 = SHAPE_DEFINITION_REPRESENTATION ( #93, #19 ) ;
#125 = CARTESIAN_POINT ( 'NONE',  ( 1.326762908760390423E-13, -4.653657836759941152E-15, 38.00000000000000000 ) ) ;
#126 = APPROVAL ( #35, 'UNSPECIFIED' ) ;
#127 = CC_DESIGN_APPROVAL ( #58, ( #208 ) ) ;
#128 = DATE_AND_TIME ( #86, #219 ) ;
#129 = DIRECTION ( 'NONE',  ( -3.491481338843133355E-15, 1.224646799147352961E-16, -1.000000000000000000 ) ) ;
#130 = CLOSED_SHELL ( 'NONE', ( #71, #88, #133 ) ) ;
#131 = DIRECTION ( 'NONE',  ( -3.491481338843133355E-15, 1.224646799147352961E-16, -1.000000000000000000 ) ) ;
#132 = PLANE ( 'NONE',  #13 ) ;
#133 = ADVANCED_FACE ( 'NONE', ( #213 ), #78, .T. ) ;
#134 = DIRECTION ( 'NONE',  ( -3.491481338843133355E-15, 1.224646799147352961E-16, -1.000000000000000000 ) ) ;
#135 = CARTESIAN_POINT ( 'NONE',  ( 1.187103655206665183E-14, 0.0000000000000000000, 3.399999999999999911 ) ) ;
#136 = CARTESIAN_POINT ( 'NONE',  ( 0.0000000000000000000, 0.0000000000000000000, 0.0000000000000000000 ) ) ;
#137 = EDGE_LOOP ( 'NONE', ( #105 ) ) ;
#138 = CALENDAR_DATE ( 2021, 24, 11 ) ;
#139 = AXIS2_PLACEMENT_3D ( 'NONE', #109, #131, #94 ) ;
#140 = PERSON_AND_ORGANIZATION_ROLE ( 'design_owner' ) ;
#141 = DIRECTION ( 'NONE',  ( 5.048484099177064226E-31, 1.000000000000000000, 1.421021944239981289E-16 ) ) ;
#142 = APPLICATION_PROTOCOL_DEFINITION ( 'international standard', 'config_control_design', 1994, #240 ) ;
#143 = ADVANCED_FACE ( 'NONE', ( #48 ), #132, .F. ) ;
#144 = PERSON_AND_ORGANIZATION ( #55, #91 ) ;
#145 = DIRECTION ( 'NONE',  ( -3.491481338843133355E-15, 1.224646799147352961E-16, -1.000000000000000000 ) ) ;
#146 = AXIS2_PLACEMENT_3D ( 'NONE', #34, #147, #227 ) ;
#147 = DIRECTION ( 'NONE',  ( -3.491481338843133355E-15, 1.224646799147352961E-16, -1.000000000000000000 ) ) ;
#148 = CC_DESIGN_PERSON_AND_ORGANIZATION_ASSIGNMENT ( #216, #52, ( #196 ) ) ;
#149 = EDGE_LOOP ( 'NONE', ( #205 ) ) ;
#150 = APPROVAL_PERSON_ORGANIZATION ( #144, #74, #197 ) ;
#151 = UNCERTAINTY_MEASURE_WITH_UNIT (LENGTH_MEASURE( 1.000000000000000082E-05 ), #160, 'distance_accuracy_value', 'NONE');
#152 = APPROVAL_ROLE ( '' ) ;
#153 = EDGE_CURVE ( 'NONE', #120, #120, #68, .T. ) ;
#154 = VERTEX_POINT ( 'NONE', #43 ) ;
#155 = AXIS2_PLACEMENT_3D ( 'NONE', #231, #113, #65 ) ;
#156 = DIRECTION ( 'NONE',  ( -4.275831445896957731E-31, -1.000000000000000000, -1.224646799147352961E-16 ) ) ;
#157 = FACE_OUTER_BOUND ( 'NONE', #72, .T. ) ;
#158 = DIRECTION ( 'NONE',  ( 3.491481338843133355E-15, -1.224646799147352961E-16, 1.000000000000000000 ) ) ;
#159 = LOCAL_TIME ( 8, 10, 4.000000000000000000, #218 ) ;
#160 =( LENGTH_UNIT ( ) NAMED_UNIT ( * ) SI_UNIT ( .MILLI., .METRE. ) );
#161 = PERSON_AND_ORGANIZATION_ROLE ( 'creator' ) ;
#162 = LOCAL_TIME ( 8, 10, 4.000000000000000000, #82 ) ;
#163 = AXIS2_PLACEMENT_3D ( 'NONE', #89, #191, #24 ) ;
#164 = MANIFOLD_SOLID_BREP ( 'Corps-Déplacer/Copier2[2]', #130 ) ;
#165 = DATE_TIME_ROLE ( 'creation_date' ) ;
#166 = EDGE_LOOP ( 'NONE', ( #87 ) ) ;
#167 = MANIFOLD_SOLID_BREP ( 'Corps-Déplacer/Copier2[1]', #62 ) ;
#168 = CC_DESIGN_PERSON_AND_ORGANIZATION_ASSIGNMENT ( #102, #81, ( #208 ) ) ;
#169 = ORIENTED_EDGE ( 'NONE', *, *, #112, .T. ) ;
#170 = AXIS2_PLACEMENT_3D ( 'NONE', #230, #63, #64 ) ;
#171 = FACE_OUTER_BOUND ( 'NONE', #166, .T. ) ;
#172 = APPROVAL_PERSON_ORGANIZATION ( #51, #58, #32 ) ;
#173 = CYLINDRICAL_SURFACE ( 'NONE', #232, 0.7499999999999996669 ) ;
#174 = CARTESIAN_POINT ( 'NONE',  ( 1.316288464743861212E-13, -4.616918432785520292E-15, 37.69999999999999574 ) ) ;
#175 = DIRECTION ( 'NONE',  ( -3.491481338843133355E-15, 1.224646799147352961E-16, -1.000000000000000000 ) ) ;
#176 = CARTESIAN_POINT ( 'NONE',  ( 0.0000000000000000000, 0.0000000000000000000, 0.0000000000000000000 ) ) ;
#177 = AXIS2_PLACEMENT_3D ( 'NONE', #67, #11, #239 ) ;
#178 = SECURITY_CLASSIFICATION_LEVEL ( 'unclassified' ) ;
#179 = CARTESIAN_POINT ( 'NONE',  ( 2.367900757518974887E-14, 1.499999999999996225, 6.781937314617165313 ) ) ;
#180 = AXIS2_PLACEMENT_3D ( 'NONE', #136, #116, #119 ) ;
#181 = DATE_AND_TIME ( #138, #76 ) ;
#182 = PRODUCT_DEFINITION_FORMATION_WITH_SPECIFIED_SOURCE ( 'ANY', '', #40, .NOT_KNOWN. ) ;
#183 = ORIENTED_EDGE ( 'NONE', *, *, #198, .T. ) ;
#184 = APPROVAL_DATE_TIME ( #128, #126 ) ;
#185 = EDGE_LOOP ( 'NONE', ( #241 ) ) ;
#186 = ORIENTED_EDGE ( 'NONE', *, *, #153, .F. ) ;
#187 = VERTEX_POINT ( 'NONE', #20 ) ;
#188 = CC_DESIGN_PERSON_AND_ORGANIZATION_ASSIGNMENT ( #30, #161, ( #182 ) ) ;
#189 = CARTESIAN_POINT ( 'NONE',  ( 1.316288464743861212E-13, 1.499999999999998446, 37.69999999999999574 ) ) ;
#190 = FACE_OUTER_BOUND ( 'NONE', #107, .T. ) ;
#191 = DIRECTION ( 'NONE',  ( 1.000000000000000000, -8.298529501018599524E-33, -3.491481338843133355E-15 ) ) ;
#192 = CARTESIAN_POINT ( 'NONE',  ( 7.899199394900781374E-15, 1.308224723921575396E-15, 2.262420625601309521 ) ) ;
#193 = ADVANCED_FACE ( 'NONE', ( #171, #96 ), #122, .T. ) ;
#194 = MECHANICAL_CONTEXT ( 'NONE', #240, 'mechanical' ) ;
#195 = CONICAL_SURFACE ( 'NONE', #121, 0.7500000000000000000, 0.3054326190990008794 ) ;
#196 = SECURITY_CLASSIFICATION ( '', '', #178 ) ;
#197 = APPROVAL_ROLE ( '' ) ;
#198 = EDGE_CURVE ( 'NONE', #236, #236, #201, .T. ) ;
#199 = DATE_AND_TIME ( #222, #22 ) ;
#200 = APPROVAL_STATUS ( 'not_yet_approved' ) ;
#201 = CIRCLE ( 'NONE', #155, 1.499999999999996891 ) ;
#202 = EDGE_LOOP ( 'NONE', ( #106 ) ) ;
#203 = PERSON_AND_ORGANIZATION ( #55, #91 ) ;
#204 = EDGE_LOOP ( 'NONE', ( #186 ) ) ;
#205 = ORIENTED_EDGE ( 'NONE', *, *, #153, .T. ) ;
#206 =( GEOMETRIC_REPRESENTATION_CONTEXT ( 3 ) GLOBAL_UNCERTAINTY_ASSIGNED_CONTEXT ( ( #151 ) ) GLOBAL_UNIT_ASSIGNED_CONTEXT ( ( #160, #100, #6 ) ) REPRESENTATION_CONTEXT ( 'NONE', 'WORKASPACE' ) );
#207 = ORIENTED_EDGE ( 'NONE', *, *, #198, .F. ) ;
#208 = PRODUCT_DEFINITION ( 'UNKNOWN', '', #182, #57 ) ;
#209 = EDGE_LOOP ( 'NONE', ( #169 ) ) ;
#210 = AXIS2_PLACEMENT_3D ( 'NONE', #25, #214, #156 ) ;
#211 = DIRECTION ( 'NONE',  ( -3.491481338843133355E-15, 1.224646799147352961E-16, -1.000000000000000000 ) ) ;
#212 = DIRECTION ( 'NONE',  ( 0.0000000000000000000, 1.000000000000000000, 0.0000000000000000000 ) ) ;
#213 = FACE_OUTER_BOUND ( 'NONE', #242, .T. ) ;
#214 = DIRECTION ( 'NONE',  ( 3.491481338843133355E-15, -1.224646799147352961E-16, 1.000000000000000000 ) ) ;
#215 = FACE_OUTER_BOUND ( 'NONE', #16, .T. ) ;
#216 = PERSON_AND_ORGANIZATION ( #55, #91 ) ;
#217 = ORIENTED_EDGE ( 'NONE', *, *, #42, .T. ) ;
#218 = COORDINATED_UNIVERSAL_TIME_OFFSET ( 1, 0, .AHEAD. ) ;
#219 = LOCAL_TIME ( 8, 10, 4.000000000000000000, #243 ) ;
#220 = FACE_OUTER_BOUND ( 'NONE', #226, .T. ) ;
#221 = ADVANCED_FACE ( 'NONE', ( #21, #190 ), #104, .F. ) ;
#222 = CALENDAR_DATE ( 2021, 24, 11 ) ;
#223 = PERSON_AND_ORGANIZATION ( #55, #91 ) ;
#224 = PERSON_AND_ORGANIZATION_ROLE ( 'design_supplier' ) ;
#225 = CIRCLE ( 'NONE', #1, 1.500000000000003109 ) ;
#226 = EDGE_LOOP ( 'NONE', ( #207 ) ) ;
#227 = DIRECTION ( 'NONE',  ( 4.275831445896957731E-31, 1.000000000000000000, 1.224646799147352961E-16 ) ) ;
#228 = VERTEX_POINT ( 'NONE', #60 ) ;
#229 = CARTESIAN_POINT ( 'NONE',  ( 1.187103655206665499E-14, -4.163799117101000559E-16, 3.400000000000000799 ) ) ;
#230 = CARTESIAN_POINT ( 'NONE',  ( 7.899199394900779797E-15, -2.770666177467595382E-16, 2.262420625601309077 ) ) ;
#231 = CARTESIAN_POINT ( 'NONE',  ( 2.367900757518974887E-14, -8.305477824363906558E-16, 6.781937314617165313 ) ) ;
#232 = AXIS2_PLACEMENT_3D ( 'NONE', #176, #134, #77 ) ;
#233 = COORDINATED_UNIVERSAL_TIME_OFFSET ( 1, 0, .AHEAD. ) ;
#234 = PERSON_AND_ORGANIZATION ( #55, #91 ) ;
#235 = CC_DESIGN_PERSON_AND_ORGANIZATION_ASSIGNMENT ( #234, #224, ( #182 ) ) ;
#236 = VERTEX_POINT ( 'NONE', #179 ) ;
#237 = AXIS2_PLACEMENT_3D ( 'NONE', #73, #175, #212 ) ;
#238 = ORIENTED_EDGE ( 'NONE', *, *, #42, .F. ) ;
#239 = DIRECTION ( 'NONE',  ( 4.275831445896957731E-31, 1.000000000000000000, 1.224646799147353207E-16 ) ) ;
#240 = APPLICATION_CONTEXT ( 'configuration controlled 3d designs of mechanical parts and assemblies' ) ;
#241 = ORIENTED_EDGE ( 'NONE', *, *, #103, .T. ) ;
#242 = EDGE_LOOP ( 'NONE', ( #238 ) ) ;
#243 = COORDINATED_UNIVERSAL_TIME_OFFSET ( 1, 0, .AHEAD. ) ;
ENDSEC;
END-ISO-10303-21;
