ISO-10303-21;
HEADER;
FILE_DESCRIPTION (( 'STEP AP203' ),
    '1' );
FILE_NAME ('959717.step',
    '2021-11-25T13:47:01',
    ( '' ),
    ( '' ),
    'SwSTEP 2.0',
    'SolidWorks 2019',
    '' );
FILE_SCHEMA (( 'CONFIG_CONTROL_DESIGN' ));
ENDSEC;

DATA;
#1 = EDGE_LOOP ( 'NONE', ( #92 ) ) ;
#2 = ADVANCED_FACE ( 'NONE', ( #37 ), #81, .F. ) ;
#3 = EDGE_LOOP ( 'NONE', ( #171 ) ) ;
#4 = FACE_OUTER_BOUND ( 'NONE', #173, .T. ) ;
#5 = CC_DESIGN_PERSON_AND_ORGANIZATION_ASSIGNMENT ( #182, #102, ( #202 ) ) ;
#6 =( LENGTH_UNIT ( ) NAMED_UNIT ( * ) SI_UNIT ( .MILLI., .METRE. ) );
#7 = VERTEX_POINT ( 'NONE', #177 ) ;
#8 = CC_DESIGN_PERSON_AND_ORGANIZATION_ASSIGNMENT ( #105, #116, ( #125 ) ) ;
#9 = VERTEX_POINT ( 'NONE', #127 ) ;
#10 = DIRECTION ( 'NONE',  ( 4.275831445896958607E-31, 1.000000000000000000, 1.224646799147353207E-16 ) ) ;
#11 = CALENDAR_DATE ( 2021, 25, 11 ) ;
#12 = EDGE_CURVE ( 'NONE', #7, #7, #149, .T. ) ;
#13 = APPROVAL_ROLE ( '' ) ;
#14 = COORDINATED_UNIVERSAL_TIME_OFFSET ( 1, 0, .AHEAD. ) ;
#15 = EDGE_CURVE ( 'NONE', #95, #95, #129, .T. ) ;
#16 = PERSON_AND_ORGANIZATION ( #51, #188 ) ;
#17 = ORIENTED_EDGE ( 'NONE', *, *, #168, .T. ) ;
#18 = CARTESIAN_POINT ( 'NONE',  ( 2.280040600304684374E-33, -7.997305877093196525E-35, 6.530295822976251018E-19 ) ) ;
#19 = UNCERTAINTY_MEASURE_WITH_UNIT (LENGTH_MEASURE( 1.000000000000000082E-05 ), #6, 'distance_accuracy_value', 'NONE');
#20 = ORIENTED_EDGE ( 'NONE', *, *, #115, .F. ) ;
#21 = APPROVAL ( #183, 'UNSPECIFIED' ) ;
#22 = CARTESIAN_POINT ( 'NONE',  ( 1.745740669421566678E-13, 1.699999999999995293, 50.00000000000000000 ) ) ;
#23 = CC_DESIGN_SECURITY_CLASSIFICATION ( #202, ( #121 ) ) ;
#24 = PLANE ( 'NONE',  #160 ) ;
#25 = ADVANCED_FACE ( 'NONE', ( #4, #147 ), #144, .T. ) ;
#26 = DIRECTION ( 'NONE',  ( -3.491481338843133355E-15, 1.224646799147353207E-16, -1.000000000000000000 ) ) ;
#27 = AXIS2_PLACEMENT_3D ( 'NONE', #178, #145, #41 ) ;
#28 = DIRECTION ( 'NONE',  ( 0.0000000000000000000, 1.000000000000000000, 0.0000000000000000000 ) ) ;
#29 = CALENDAR_DATE ( 2021, 25, 11 ) ;
#30 = CONICAL_SURFACE ( 'NONE', #35, 1.999999999999994449, 0.5235987755982927094 ) ;
#31 = APPROVAL_PERSON_ORGANIZATION ( #47, #49, #13 ) ;
#32 = MANIFOLD_SOLID_BREP ( 'Corps-Déplacer/Copier1[1]', #96 ) ;
#33 = COORDINATED_UNIVERSAL_TIME_OFFSET ( 1, 0, .AHEAD. ) ;
#34 = PERSON_AND_ORGANIZATION_ROLE ( 'creator' ) ;
#35 = AXIS2_PLACEMENT_3D ( 'NONE', #84, #56, #123 ) ;
#36 = CC_DESIGN_APPROVAL ( #21, ( #121 ) ) ;
#37 = FACE_OUTER_BOUND ( 'NONE', #52, .T. ) ;
#38 = EDGE_LOOP ( 'NONE', ( #64 ) ) ;
#39 = ADVANCED_FACE ( 'NONE', ( #110, #174 ), #30, .T. ) ;
#40 = DIRECTION ( 'NONE',  ( 4.275831445896958607E-31, 1.000000000000000000, 1.224646799147353207E-16 ) ) ;
#41 = DIRECTION ( 'NONE',  ( -4.275831445896958607E-31, -1.000000000000000000, -1.224646799147353207E-16 ) ) ;
#42 = CARTESIAN_POINT ( 'NONE',  ( 1.149010383785446595E-14, -7.135994344001606225E-16, 3.290896534380904015 ) ) ;
#43 = CARTESIAN_POINT ( 'NONE',  ( 1.149010383785446595E-14, 1.999999999999994005, 3.290896534380904015 ) ) ;
#44 = DIRECTION ( 'NONE',  ( 0.0000000000000000000, 1.000000000000000000, 0.0000000000000000000 ) ) ;
#45 = LOCAL_TIME ( 14, 47, 1.000000000000000000, #33 ) ;
#46 = DATE_TIME_ROLE ( 'classification_date' ) ;
#47 = PERSON_AND_ORGANIZATION ( #51, #188 ) ;
#48 = DATE_TIME_ROLE ( 'creation_date' ) ;
#49 = APPROVAL ( #137, 'UNSPECIFIED' ) ;
#50 = PERSON_AND_ORGANIZATION ( #51, #188 ) ;
#51 = PERSON ( 'UNSPECIFIED', 'UNSPECIFIED', 'UNSPECIFIED', ('UNSPECIFIED'), ('UNSPECIFIED'), ('UNSPECIFIED') ) ;
#52 = EDGE_LOOP ( 'NONE', ( #94 ) ) ;
#53 = ORIENTED_EDGE ( 'NONE', *, *, #15, .T. ) ;
#54 = APPLICATION_CONTEXT ( 'configuration controlled 3d designs of mechanical parts and assemblies' ) ;
#55 = LOCAL_TIME ( 14, 47, 1.000000000000000000, #14 ) ;
#56 = DIRECTION ( 'NONE',  ( 3.491481338843133355E-15, -1.224646799147353207E-16, 1.000000000000000000 ) ) ;
#57 = DIRECTION ( 'NONE',  ( -3.491481338843133355E-15, 1.224646799147353207E-16, -1.000000000000000000 ) ) ;
#58 = APPROVAL_PERSON_ORGANIZATION ( #152, #99, #77 ) ;
#59 = FACE_OUTER_BOUND ( 'NONE', #119, .T. ) ;
#60 = CARTESIAN_POINT ( 'NONE',  ( 0.0000000000000000000, 0.0000000000000000000, 0.0000000000000000000 ) ) ;
#61 = CALENDAR_DATE ( 2021, 25, 11 ) ;
#62 = ADVANCED_FACE ( 'NONE', ( #70 ), #124, .F. ) ;
#63 = DIRECTION ( 'NONE',  ( 0.0000000000000000000, 0.0000000000000000000, 1.000000000000000000 ) ) ;
#64 = ORIENTED_EDGE ( 'NONE', *, *, #203, .F. ) ;
#65 = ADVANCED_FACE ( 'NONE', ( #59, #191 ), #76, .T. ) ;
#66 = AXIS2_PLACEMENT_3D ( 'NONE', #60, #63, #130 ) ;
#67 = DIRECTION ( 'NONE',  ( -3.491481338843133355E-15, 1.224646799147353207E-16, -1.000000000000000000 ) ) ;
#68 = DIRECTION ( 'NONE',  ( 7.703719777548964432E-31, 1.000000000000000000, 2.168404344971014784E-16 ) ) ;
#69 =( NAMED_UNIT ( * ) SI_UNIT ( $, .STERADIAN. ) SOLID_ANGLE_UNIT ( ) );
#70 = FACE_OUTER_BOUND ( 'NONE', #93, .T. ) ;
#71 = CARTESIAN_POINT ( 'NONE',  ( 1.745740669421566678E-13, -6.123233995736766085E-15, 50.00000000000000000 ) ) ;
#72 = DIRECTION ( 'NONE',  ( -4.275831445896958607E-31, -1.000000000000000000, -1.224646799147353207E-16 ) ) ;
#73 = AXIS2_PLACEMENT_3D ( 'NONE', #128, #98, #10 ) ;
#74 = PERSON_AND_ORGANIZATION ( #51, #188 ) ;
#75 = COORDINATED_UNIVERSAL_TIME_OFFSET ( 1, 0, .AHEAD. ) ;
#76 = CONICAL_SURFACE ( 'NONE', #104, 1.700000000000001510, 0.7853981633974338461 ) ;
#77 = APPROVAL_ROLE ( '' ) ;
#78 = CC_DESIGN_PERSON_AND_ORGANIZATION_ASSIGNMENT ( #50, #106, ( #121 ) ) ;
#79 = ORIENTED_EDGE ( 'NONE', *, *, #115, .T. ) ;
#80 = DIRECTION ( 'NONE',  ( 3.491481338843133355E-15, -1.224646799147353207E-16, 1.000000000000000000 ) ) ;
#81 = PLANE ( 'NONE',  #201 ) ;
#82 = LOCAL_TIME ( 14, 47, 1.000000000000000000, #181 ) ;
#83 =( NAMED_UNIT ( * ) PLANE_ANGLE_UNIT ( ) SI_UNIT ( $, .RADIAN. ) );
#84 = CARTESIAN_POINT ( 'NONE',  ( 1.149010383785446438E-14, -4.030185907154691291E-16, 3.290896534380903571 ) ) ;
#85 = CLOSED_SHELL ( 'NONE', ( #2, #39, #140 ) ) ;
#86 = CARTESIAN_POINT ( 'NONE',  ( 1.735266225405037214E-13, -6.086494591762344436E-15, 49.69999999999999574 ) ) ;
#87 = DATE_AND_TIME ( #29, #166 ) ;
#88 = APPLICATION_PROTOCOL_DEFINITION ( 'international standard', 'config_control_design', 1994, #189 ) ;
#89 = AXIS2_PLACEMENT_3D ( 'NONE', #107, #141, #68 ) ;
#90 = DATE_AND_TIME ( #11, #45 ) ;
#91 = DATE_AND_TIME ( #200, #136 ) ;
#92 = ORIENTED_EDGE ( 'NONE', *, *, #12, .F. ) ;
#93 = EDGE_LOOP ( 'NONE', ( #53 ) ) ;
#94 = ORIENTED_EDGE ( 'NONE', *, *, #203, .T. ) ;
#95 = VERTEX_POINT ( 'NONE', #43 ) ;
#96 = CLOSED_SHELL ( 'NONE', ( #62, #25, #65, #148 ) ) ;
#97 = CARTESIAN_POINT ( 'NONE',  ( 1.745740669421566678E-13, 1.274795815262571030E-32, 50.00000000000000000 ) ) ;
#98 = DIRECTION ( 'NONE',  ( -3.491481338843133355E-15, 1.224646799147353207E-16, -1.000000000000000000 ) ) ;
#99 = APPROVAL ( #132, 'UNSPECIFIED' ) ;
#100 = AXIS2_PLACEMENT_3D ( 'NONE', #111, #57, #44 ) ;
#101 = PLANE ( 'NONE',  #194 ) ;
#102 = PERSON_AND_ORGANIZATION_ROLE ( 'classification_officer' ) ;
#103 = PRODUCT_RELATED_PRODUCT_CATEGORY ( 'detail', '', ( #108 ) ) ;
#104 = AXIS2_PLACEMENT_3D ( 'NONE', #71, #157, #28 ) ;
#105 = PERSON_AND_ORGANIZATION ( #51, #188 ) ;
#106 = PERSON_AND_ORGANIZATION_ROLE ( 'design_supplier' ) ;
#107 = CARTESIAN_POINT ( 'NONE',  ( 1.149010383785446438E-14, -4.030185907154691291E-16, 3.290896534380903571 ) ) ;
#108 = PRODUCT ( '959717', '959717', '', ( #133 ) ) ;
#109 = DIRECTION ( 'NONE',  ( -3.491481338843133355E-15, 1.224646799147353207E-16, -1.000000000000000000 ) ) ;
#110 = FACE_BOUND ( 'NONE', #38, .T. ) ;
#111 = CARTESIAN_POINT ( 'NONE',  ( 1.745740669421566678E-13, -6.123233995736766085E-15, 50.00000000000000000 ) ) ;
#112 = VERTEX_POINT ( 'NONE', #146 ) ;
#113 = DATE_AND_TIME ( #167, #55 ) ;
#114 = PERSON_AND_ORGANIZATION_ROLE ( 'design_owner' ) ;
#115 = EDGE_CURVE ( 'NONE', #112, #112, #135, .T. ) ;
#116 = PERSON_AND_ORGANIZATION_ROLE ( 'creator' ) ;
#117 = APPROVAL_ROLE ( '' ) ;
#118 = CC_DESIGN_DATE_AND_TIME_ASSIGNMENT ( #151, #48, ( #125 ) ) ;
#119 = EDGE_LOOP ( 'NONE', ( #20 ) ) ;
#120 = DIRECTION ( 'NONE',  ( 7.703719777548964432E-31, 1.000000000000000000, 2.168404344971014784E-16 ) ) ;
#121 = PRODUCT_DEFINITION_FORMATION_WITH_SPECIFIED_SOURCE ( 'ANY', '', #108, .NOT_KNOWN. ) ;
#122 = ADVANCED_BREP_SHAPE_REPRESENTATION ( '959717', ( #32, #153, #66 ), #175 ) ;
#123 = DIRECTION ( 'NONE',  ( -7.703719777548964432E-31, -1.000000000000000000, -2.168404344971014784E-16 ) ) ;
#124 = PLANE ( 'NONE',  #27 ) ;
#125 = PRODUCT_DEFINITION ( 'UNKNOWN', '', #121, #192 ) ;
#126 = FACE_OUTER_BOUND ( 'NONE', #1, .T. ) ;
#127 = CARTESIAN_POINT ( 'NONE',  ( 4.731839565957903391E-32, 0.1000000000000001998, 1.355252715606880543E-17 ) ) ;
#128 = CARTESIAN_POINT ( 'NONE',  ( 4.560081200609368749E-33, -1.599461175418639305E-34, 1.306059164595250204E-18 ) ) ;
#129 = CIRCLE ( 'NONE', #89, 1.999999999999994449 ) ;
#130 = DIRECTION ( 'NONE',  ( 1.000000000000000000, 0.0000000000000000000, 0.0000000000000000000 ) ) ;
#131 = CC_DESIGN_PERSON_AND_ORGANIZATION_ASSIGNMENT ( #16, #114, ( #108 ) ) ;
#132 = APPROVAL_STATUS ( 'not_yet_approved' ) ;
#133 = MECHANICAL_CONTEXT ( 'NONE', #189, 'mechanical' ) ;
#134 = PERSON_AND_ORGANIZATION ( #51, #188 ) ;
#135 = CIRCLE ( 'NONE', #180, 2.000000000000001332 ) ;
#136 = LOCAL_TIME ( 14, 47, 1.000000000000000000, #75 ) ;
#137 = APPROVAL_STATUS ( 'not_yet_approved' ) ;
#138 = APPROVAL_PERSON_ORGANIZATION ( #134, #21, #117 ) ;
#139 = CARTESIAN_POINT ( 'NONE',  ( 1.149010383785446438E-14, -4.030185907154691291E-16, 3.290896534380903571 ) ) ;
#140 = ADVANCED_FACE ( 'NONE', ( #126 ), #101, .T. ) ;
#141 = DIRECTION ( 'NONE',  ( -3.491481338843133355E-15, 1.224646799147353207E-16, -1.000000000000000000 ) ) ;
#142 = CIRCLE ( 'NONE', #73, 0.1000000000000001998 ) ;
#143 = CC_DESIGN_APPROVAL ( #99, ( #202 ) ) ;
#144 = CYLINDRICAL_SURFACE ( 'NONE', #165, 1.999999999999997780 ) ;
#145 = DIRECTION ( 'NONE',  ( 3.491481338843133355E-15, -1.224646799147353207E-16, 1.000000000000000000 ) ) ;
#146 = CARTESIAN_POINT ( 'NONE',  ( 1.735266225405037214E-13, 1.999999999999995337, 49.69999999999999574 ) ) ;
#147 = FACE_OUTER_BOUND ( 'NONE', #190, .T. ) ;
#148 = ADVANCED_FACE ( 'NONE', ( #176 ), #24, .F. ) ;
#149 = CIRCLE ( 'NONE', #155, 1.999999999999994449 ) ;
#150 = SECURITY_CLASSIFICATION_LEVEL ( 'unclassified' ) ;
#151 = DATE_AND_TIME ( #61, #82 ) ;
#152 = PERSON_AND_ORGANIZATION ( #51, #188 ) ;
#153 = MANIFOLD_SOLID_BREP ( 'Corps-Déplacer/Copier1[2]', #85 ) ;
#154 = EDGE_LOOP ( 'NONE', ( #186 ) ) ;
#155 = AXIS2_PLACEMENT_3D ( 'NONE', #139, #67, #120 ) ;
#156 = CARTESIAN_POINT ( 'NONE',  ( 0.0000000000000000000, 0.0000000000000000000, 0.0000000000000000000 ) ) ;
#157 = DIRECTION ( 'NONE',  ( -3.491481338843133355E-15, 1.224646799147353207E-16, -1.000000000000000000 ) ) ;
#158 = SHAPE_DEFINITION_REPRESENTATION ( #161, #122 ) ;
#159 = DIRECTION ( 'NONE',  ( 4.275831445896957731E-31, 1.000000000000000000, 1.224646799147353454E-16 ) ) ;
#160 = AXIS2_PLACEMENT_3D ( 'NONE', #97, #195, #40 ) ;
#161 = PRODUCT_DEFINITION_SHAPE ( 'NONE', 'NONE',  #125 ) ;
#162 = CC_DESIGN_PERSON_AND_ORGANIZATION_ASSIGNMENT ( #74, #34, ( #121 ) ) ;
#163 = COORDINATED_UNIVERSAL_TIME_OFFSET ( 1, 0, .AHEAD. ) ;
#164 = APPROVAL_DATE_TIME ( #87, #99 ) ;
#165 = AXIS2_PLACEMENT_3D ( 'NONE', #156, #26, #159 ) ;
#166 = LOCAL_TIME ( 14, 47, 1.000000000000000000, #163 ) ;
#167 = CALENDAR_DATE ( 2021, 25, 11 ) ;
#168 = EDGE_CURVE ( 'NONE', #196, #196, #187, .T. ) ;
#169 = APPROVAL_DATE_TIME ( #90, #21 ) ;
#170 = APPROVAL_DATE_TIME ( #113, #49 ) ;
#171 = ORIENTED_EDGE ( 'NONE', *, *, #168, .F. ) ;
#172 = DIRECTION ( 'NONE',  ( -4.275831445896958607E-31, -1.000000000000000000, -1.224646799147353207E-16 ) ) ;
#173 = EDGE_LOOP ( 'NONE', ( #185 ) ) ;
#174 = FACE_OUTER_BOUND ( 'NONE', #154, .T. ) ;
#175 =( GEOMETRIC_REPRESENTATION_CONTEXT ( 3 ) GLOBAL_UNCERTAINTY_ASSIGNED_CONTEXT ( ( #19 ) ) GLOBAL_UNIT_ASSIGNED_CONTEXT ( ( #6, #83, #69 ) ) REPRESENTATION_CONTEXT ( 'NONE', 'WORKASPACE' ) );
#176 = FACE_OUTER_BOUND ( 'NONE', #3, .T. ) ;
#177 = CARTESIAN_POINT ( 'NONE',  ( 1.149010383785446595E-14, 1.999999999999994005, 3.290896534380904015 ) ) ;
#178 = CARTESIAN_POINT ( 'NONE',  ( 1.149010383785446595E-14, -7.135994344001606225E-16, 3.290896534380904015 ) ) ;
#179 = CC_DESIGN_DATE_AND_TIME_ASSIGNMENT ( #91, #46, ( #202 ) ) ;
#180 = AXIS2_PLACEMENT_3D ( 'NONE', #86, #109, #193 ) ;
#181 = COORDINATED_UNIVERSAL_TIME_OFFSET ( 1, 0, .AHEAD. ) ;
#182 = PERSON_AND_ORGANIZATION ( #51, #188 ) ;
#183 = APPROVAL_STATUS ( 'not_yet_approved' ) ;
#184 = EDGE_LOOP ( 'NONE', ( #17 ) ) ;
#185 = ORIENTED_EDGE ( 'NONE', *, *, #15, .F. ) ;
#186 = ORIENTED_EDGE ( 'NONE', *, *, #12, .T. ) ;
#187 = CIRCLE ( 'NONE', #100, 1.700000000000001510 ) ;
#188 = ORGANIZATION ( 'UNSPECIFIED', 'UNSPECIFIED', '' ) ;
#189 = APPLICATION_CONTEXT ( 'configuration controlled 3d designs of mechanical parts and assemblies' ) ;
#190 = EDGE_LOOP ( 'NONE', ( #79 ) ) ;
#191 = FACE_BOUND ( 'NONE', #184, .T. ) ;
#192 = DESIGN_CONTEXT ( 'detailed design', #54, 'design' ) ;
#193 = DIRECTION ( 'NONE',  ( 0.0000000000000000000, 1.000000000000000000, 0.0000000000000000000 ) ) ;
#194 = AXIS2_PLACEMENT_3D ( 'NONE', #42, #197, #72 ) ;
#195 = DIRECTION ( 'NONE',  ( -3.491481338843133355E-15, 1.224646799147353207E-16, -1.000000000000000000 ) ) ;
#196 = VERTEX_POINT ( 'NONE', #22 ) ;
#197 = DIRECTION ( 'NONE',  ( 3.491481338843133355E-15, -1.224646799147353207E-16, 1.000000000000000000 ) ) ;
#198 = CC_DESIGN_APPROVAL ( #49, ( #125 ) ) ;
#199 = APPLICATION_PROTOCOL_DEFINITION ( 'international standard', 'config_control_design', 1994, #54 ) ;
#200 = CALENDAR_DATE ( 2021, 25, 11 ) ;
#201 = AXIS2_PLACEMENT_3D ( 'NONE', #18, #80, #172 ) ;
#202 = SECURITY_CLASSIFICATION ( '', '', #150 ) ;
#203 = EDGE_CURVE ( 'NONE', #9, #9, #142, .T. ) ;
ENDSEC;
END-ISO-10303-21;
