ISO-10303-21;
HEADER;
FILE_DESCRIPTION (( 'STEP AP203' ),
    '1' );
FILE_NAME ('959716.step',
    '2021-11-25T13:47:01',
    ( '' ),
    ( '' ),
    'SwSTEP 2.0',
    'SolidWorks 2019',
    '' );
FILE_SCHEMA (( 'CONFIG_CONTROL_DESIGN' ));
ENDSEC;

DATA;
#1 = PERSON_AND_ORGANIZATION ( #174, #177 ) ;
#2 = APPROVAL_STATUS ( 'not_yet_approved' ) ;
#3 = DATE_AND_TIME ( #56, #20 ) ;
#4 = AXIS2_PLACEMENT_3D ( 'NONE', #134, #24, #75 ) ;
#5 = EDGE_LOOP ( 'NONE', ( #89 ) ) ;
#6 = EDGE_LOOP ( 'NONE', ( #194 ) ) ;
#7 = CC_DESIGN_DATE_AND_TIME_ASSIGNMENT ( #145, #84, ( #128 ) ) ;
#8 = CONICAL_SURFACE ( 'NONE', #141, 1.999999999999994449, 0.5235987755982927094 ) ;
#9 = ORIENTED_EDGE ( 'NONE', *, *, #59, .T. ) ;
#10 = CARTESIAN_POINT ( 'NONE',  ( 1.179247499148221954E-14, 2.929513467537503942E-15, 3.377499074759350073 ) ) ;
#11 = ADVANCED_FACE ( 'NONE', ( #73, #136 ), #120, .T. ) ;
#12 = APPROVAL_DATE_TIME ( #186, #135 ) ;
#13 = APPROVAL_PERSON_ORGANIZATION ( #94, #50, #126 ) ;
#14 = CARTESIAN_POINT ( 'NONE',  ( 0.0000000000000000000, 0.0000000000000000000, 0.0000000000000000000 ) ) ;
#15 =( LENGTH_UNIT ( ) NAMED_UNIT ( * ) SI_UNIT ( .MILLI., .METRE. ) );
#16 = APPLICATION_CONTEXT ( 'configuration controlled 3d designs of mechanical parts and assemblies' ) ;
#17 = DIRECTION ( 'NONE',  ( 1.000000000000000000, 0.0000000000000000000, 0.0000000000000000000 ) ) ;
#18 = CC_DESIGN_PERSON_AND_ORGANIZATION_ASSIGNMENT ( #68, #31, ( #53 ) ) ;
#19 = PERSON_AND_ORGANIZATION ( #174, #177 ) ;
#20 = LOCAL_TIME ( 14, 47, 1.000000000000000000, #147 ) ;
#21 = APPROVAL_DATE_TIME ( #109, #42 ) ;
#22 = LOCAL_TIME ( 14, 47, 1.000000000000000000, #173 ) ;
#23 = EDGE_CURVE ( 'NONE', #138, #138, #91, .T. ) ;
#24 = DIRECTION ( 'NONE',  ( -3.491481338843133355E-15, 1.224646799147353207E-16, -1.000000000000000000 ) ) ;
#25 = EDGE_LOOP ( 'NONE', ( #9 ) ) ;
#26 = FACE_BOUND ( 'NONE', #6, .T. ) ;
#27 = FACE_OUTER_BOUND ( 'NONE', #38, .T. ) ;
#28 = ORIENTED_EDGE ( 'NONE', *, *, #23, .T. ) ;
#29 = CYLINDRICAL_SURFACE ( 'NONE', #195, 1.999999999999997780 ) ;
#30 = EDGE_CURVE ( 'NONE', #48, #48, #33, .T. ) ;
#31 = PERSON_AND_ORGANIZATION_ROLE ( 'design_owner' ) ;
#32 = CARTESIAN_POINT ( 'NONE',  ( 1.745740669421566678E-13, 1.699999999999995293, 50.00000000000000000 ) ) ;
#33 = CIRCLE ( 'NONE', #4, 1.700000000000001510 ) ;
#34 = APPROVAL_STATUS ( 'not_yet_approved' ) ;
#35 =( GEOMETRIC_REPRESENTATION_CONTEXT ( 3 ) GLOBAL_UNCERTAINTY_ASSIGNED_CONTEXT ( ( #161 ) ) GLOBAL_UNIT_ASSIGNED_CONTEXT ( ( #15, #200, #107 ) ) REPRESENTATION_CONTEXT ( 'NONE', 'WORKASPACE' ) );
#36 = CC_DESIGN_SECURITY_CLASSIFICATION ( #69, ( #88 ) ) ;
#37 = AXIS2_PLACEMENT_3D ( 'NONE', #117, #184, #43 ) ;
#38 = EDGE_LOOP ( 'NONE', ( #168 ) ) ;
#39 = ORIENTED_EDGE ( 'NONE', *, *, #30, .T. ) ;
#40 = DIRECTION ( 'NONE',  ( 0.0000000000000000000, 1.000000000000000000, 0.0000000000000000000 ) ) ;
#41 = CARTESIAN_POINT ( 'NONE',  ( 1.179247499148221481E-14, -4.136243431027183387E-16, 3.377499074759348741 ) ) ;
#42 = APPROVAL ( #2, 'UNSPECIFIED' ) ;
#43 = DIRECTION ( 'NONE',  ( 4.275831445896958607E-31, 1.000000000000000000, 1.224646799147353207E-16 ) ) ;
#44 = DIRECTION ( 'NONE',  ( -4.275831445896958607E-31, -1.000000000000000000, -1.224646799147353207E-16 ) ) ;
#45 = ADVANCED_FACE ( 'NONE', ( #61 ), #115, .F. ) ;
#46 = AXIS2_PLACEMENT_3D ( 'NONE', #106, #105, #44 ) ;
#47 = VERTEX_POINT ( 'NONE', #93 ) ;
#48 = VERTEX_POINT ( 'NONE', #32 ) ;
#49 = PLANE ( 'NONE',  #46 ) ;
#50 = APPROVAL ( #34, 'UNSPECIFIED' ) ;
#51 = CLOSED_SHELL ( 'NONE', ( #171, #98, #92 ) ) ;
#52 = COORDINATED_UNIVERSAL_TIME_OFFSET ( 1, 0, .AHEAD. ) ;
#53 = PRODUCT ( '959716', '959716', '', ( #119 ) ) ;
#54 = SHAPE_DEFINITION_REPRESENTATION ( #125, #143 ) ;
#55 = AXIS2_PLACEMENT_3D ( 'NONE', #62, #181, #180 ) ;
#56 = CALENDAR_DATE ( 2021, 25, 11 ) ;
#57 = CALENDAR_DATE ( 2021, 25, 11 ) ;
#58 = DIRECTION ( 'NONE',  ( 0.0000000000000000000, 1.000000000000000000, 0.0000000000000000000 ) ) ;
#59 = EDGE_CURVE ( 'NONE', #121, #121, #172, .T. ) ;
#60 = DIRECTION ( 'NONE',  ( 3.491481338843133355E-15, -1.224646799147353207E-16, 1.000000000000000000 ) ) ;
#61 = FACE_OUTER_BOUND ( 'NONE', #130, .T. ) ;
#62 = CARTESIAN_POINT ( 'NONE',  ( 1.179247499148221481E-14, -4.136243431027183387E-16, 3.377499074759348741 ) ) ;
#63 = AXIS2_PLACEMENT_3D ( 'NONE', #122, #82, #17 ) ;
#64 = EDGE_LOOP ( 'NONE', ( #39 ) ) ;
#65 = PERSON_AND_ORGANIZATION_ROLE ( 'creator' ) ;
#66 = EDGE_CURVE ( 'NONE', #47, #47, #148, .T. ) ;
#67 = CARTESIAN_POINT ( 'NONE',  ( 0.0000000000000000000, 0.05000000000000021094, 0.0000000000000000000 ) ) ;
#68 = PERSON_AND_ORGANIZATION ( #174, #177 ) ;
#69 = SECURITY_CLASSIFICATION ( '', '', #129 ) ;
#70 = COORDINATED_UNIVERSAL_TIME_OFFSET ( 1, 0, .AHEAD. ) ;
#71 = DATE_AND_TIME ( #124, #22 ) ;
#72 = PERSON_AND_ORGANIZATION_ROLE ( 'classification_officer' ) ;
#73 = FACE_OUTER_BOUND ( 'NONE', #149, .T. ) ;
#74 = CARTESIAN_POINT ( 'NONE',  ( 1.179247499148221954E-14, 2.929513467537503942E-15, 3.377499074759350073 ) ) ;
#75 = DIRECTION ( 'NONE',  ( 0.0000000000000000000, 1.000000000000000000, 0.0000000000000000000 ) ) ;
#76 = PLANE ( 'NONE',  #37 ) ;
#77 = PERSON_AND_ORGANIZATION ( #174, #177 ) ;
#78 = CARTESIAN_POINT ( 'NONE',  ( 1.179247499148221639E-14, 1.999999999999994005, 3.377499074759349185 ) ) ;
#79 = APPROVAL_STATUS ( 'not_yet_approved' ) ;
#80 = CC_DESIGN_APPROVAL ( #42, ( #69 ) ) ;
#81 = CC_DESIGN_DATE_AND_TIME_ASSIGNMENT ( #71, #83, ( #69 ) ) ;
#82 = DIRECTION ( 'NONE',  ( 0.0000000000000000000, 0.0000000000000000000, 1.000000000000000000 ) ) ;
#83 = DATE_TIME_ROLE ( 'classification_date' ) ;
#84 = DATE_TIME_ROLE ( 'creation_date' ) ;
#85 = AXIS2_PLACEMENT_3D ( 'NONE', #157, #201, #103 ) ;
#86 = MANIFOLD_SOLID_BREP ( 'Corps-Déplacer/Copier1[1]', #187 ) ;
#87 = MANIFOLD_SOLID_BREP ( 'Corps-Déplacer/Copier1[2]', #51 ) ;
#88 = PRODUCT_DEFINITION_FORMATION_WITH_SPECIFIED_SOURCE ( 'ANY', '', #53, .NOT_KNOWN. ) ;
#89 = ORIENTED_EDGE ( 'NONE', *, *, #59, .F. ) ;
#90 = ORIENTED_EDGE ( 'NONE', *, *, #66, .T. ) ;
#91 = CIRCLE ( 'NONE', #188, 1.999999999999994449 ) ;
#92 = ADVANCED_FACE ( 'NONE', ( #100 ), #164, .T. ) ;
#93 = CARTESIAN_POINT ( 'NONE',  ( 1.735266225405037214E-13, 1.999999999999995337, 49.69999999999999574 ) ) ;
#94 = PERSON_AND_ORGANIZATION ( #174, #177 ) ;
#95 = PERSON_AND_ORGANIZATION_ROLE ( 'design_supplier' ) ;
#96 = AXIS2_PLACEMENT_3D ( 'NONE', #131, #133, #58 ) ;
#97 = EDGE_LOOP ( 'NONE', ( #152 ) ) ;
#98 = ADVANCED_FACE ( 'NONE', ( #26, #114 ), #8, .T. ) ;
#99 = ORIENTED_EDGE ( 'NONE', *, *, #23, .F. ) ;
#100 = FACE_OUTER_BOUND ( 'NONE', #5, .T. ) ;
#101 = DIRECTION ( 'NONE',  ( 3.491481338843133355E-15, -1.224646799147353207E-16, 1.000000000000000000 ) ) ;
#102 = DIRECTION ( 'NONE',  ( 3.491481338843133355E-15, -1.224646799147353207E-16, 1.000000000000000000 ) ) ;
#103 = DIRECTION ( 'NONE',  ( 4.275831445896958607E-31, 1.000000000000000000, 1.224646799147353207E-16 ) ) ;
#104 = LOCAL_TIME ( 14, 47, 1.000000000000000000, #70 ) ;
#105 = DIRECTION ( 'NONE',  ( 3.491481338843133355E-15, -1.224646799147353207E-16, 1.000000000000000000 ) ) ;
#106 = CARTESIAN_POINT ( 'NONE',  ( -1.068957861474244195E-32, 3.749399456654659842E-34, -3.061616997868395883E-18 ) ) ;
#107 =( NAMED_UNIT ( * ) SI_UNIT ( $, .STERADIAN. ) SOLID_ANGLE_UNIT ( ) );
#108 = CC_DESIGN_APPROVAL ( #50, ( #88 ) ) ;
#109 = DATE_AND_TIME ( #110, #185 ) ;
#110 = CALENDAR_DATE ( 2021, 25, 11 ) ;
#111 = PERSON_AND_ORGANIZATION_ROLE ( 'creator' ) ;
#112 = DIRECTION ( 'NONE',  ( -4.275831445896958607E-31, -1.000000000000000000, -1.224646799147353207E-16 ) ) ;
#113 = CC_DESIGN_PERSON_AND_ORGANIZATION_ASSIGNMENT ( #1, #72, ( #69 ) ) ;
#114 = FACE_OUTER_BOUND ( 'NONE', #25, .T. ) ;
#115 = PLANE ( 'NONE',  #159 ) ;
#116 = DIRECTION ( 'NONE',  ( -4.275831445896958607E-31, -1.000000000000000000, -1.224646799147353207E-16 ) ) ;
#117 = CARTESIAN_POINT ( 'NONE',  ( 1.745740669421566678E-13, 1.274795815262571030E-32, 50.00000000000000000 ) ) ;
#118 = FACE_OUTER_BOUND ( 'NONE', #97, .T. ) ;
#119 = MECHANICAL_CONTEXT ( 'NONE', #158, 'mechanical' ) ;
#120 = CONICAL_SURFACE ( 'NONE', #96, 1.700000000000001510, 0.7853981633974338461 ) ;
#121 = VERTEX_POINT ( 'NONE', #78 ) ;
#122 = CARTESIAN_POINT ( 'NONE',  ( 0.0000000000000000000, 0.0000000000000000000, 0.0000000000000000000 ) ) ;
#123 = CALENDAR_DATE ( 2021, 25, 11 ) ;
#124 = CALENDAR_DATE ( 2021, 25, 11 ) ;
#125 = PRODUCT_DEFINITION_SHAPE ( 'NONE', 'NONE',  #128 ) ;
#126 = APPROVAL_ROLE ( '' ) ;
#127 = DESIGN_CONTEXT ( 'detailed design', #16, 'design' ) ;
#128 = PRODUCT_DEFINITION ( 'UNKNOWN', '', #88, #127 ) ;
#129 = SECURITY_CLASSIFICATION_LEVEL ( 'unclassified' ) ;
#130 = EDGE_LOOP ( 'NONE', ( #28 ) ) ;
#131 = CARTESIAN_POINT ( 'NONE',  ( 1.745740669421566678E-13, -6.123233995736766085E-15, 50.00000000000000000 ) ) ;
#132 = CC_DESIGN_APPROVAL ( #135, ( #128 ) ) ;
#133 = DIRECTION ( 'NONE',  ( -3.491481338843133355E-15, 1.224646799147353207E-16, -1.000000000000000000 ) ) ;
#134 = CARTESIAN_POINT ( 'NONE',  ( 1.745740669421566678E-13, -6.123233995736766085E-15, 50.00000000000000000 ) ) ;
#135 = APPROVAL ( #79, 'UNSPECIFIED' ) ;
#136 = FACE_BOUND ( 'NONE', #64, .T. ) ;
#137 = APPROVAL_PERSON_ORGANIZATION ( #191, #42, #178 ) ;
#138 = VERTEX_POINT ( 'NONE', #170 ) ;
#139 = DIRECTION ( 'NONE',  ( -3.491481338843133355E-15, 1.224646799147353207E-16, -1.000000000000000000 ) ) ;
#140 = VERTEX_POINT ( 'NONE', #67 ) ;
#141 = AXIS2_PLACEMENT_3D ( 'NONE', #41, #101, #167 ) ;
#142 = FACE_OUTER_BOUND ( 'NONE', #163, .T. ) ;
#143 = ADVANCED_BREP_SHAPE_REPRESENTATION ( '959716', ( #86, #87, #63 ), #35 ) ;
#144 = PERSON_AND_ORGANIZATION ( #174, #177 ) ;
#145 = DATE_AND_TIME ( #57, #166 ) ;
#146 = AXIS2_PLACEMENT_3D ( 'NONE', #196, #182, #40 ) ;
#147 = COORDINATED_UNIVERSAL_TIME_OFFSET ( 1, 0, .AHEAD. ) ;
#148 = CIRCLE ( 'NONE', #146, 2.000000000000001332 ) ;
#149 = EDGE_LOOP ( 'NONE', ( #197 ) ) ;
#150 = CARTESIAN_POINT ( 'NONE',  ( 1.179247499148221481E-14, -4.136243431027183387E-16, 3.377499074759348741 ) ) ;
#151 = APPROVAL_PERSON_ORGANIZATION ( #144, #135, #203 ) ;
#152 = ORIENTED_EDGE ( 'NONE', *, *, #175, .T. ) ;
#153 = ADVANCED_FACE ( 'NONE', ( #27 ), #76, .F. ) ;
#154 = ADVANCED_FACE ( 'NONE', ( #202, #142 ), #29, .T. ) ;
#155 = APPLICATION_PROTOCOL_DEFINITION ( 'international standard', 'config_control_design', 1994, #158 ) ;
#156 = APPLICATION_PROTOCOL_DEFINITION ( 'international standard', 'config_control_design', 1994, #16 ) ;
#157 = CARTESIAN_POINT ( 'NONE',  ( -2.137915722948488390E-32, 7.498798913309319685E-34, -6.123233995736791766E-18 ) ) ;
#158 = APPLICATION_CONTEXT ( 'configuration controlled 3d designs of mechanical parts and assemblies' ) ;
#159 = AXIS2_PLACEMENT_3D ( 'NONE', #74, #102, #112 ) ;
#160 = APPROVAL_DATE_TIME ( #3, #50 ) ;
#161 = UNCERTAINTY_MEASURE_WITH_UNIT (LENGTH_MEASURE( 1.000000000000000082E-05 ), #15, 'distance_accuracy_value', 'NONE');
#162 = EDGE_LOOP ( 'NONE', ( #99 ) ) ;
#163 = EDGE_LOOP ( 'NONE', ( #90 ) ) ;
#164 = PLANE ( 'NONE',  #199 ) ;
#165 = PRODUCT_RELATED_PRODUCT_CATEGORY ( 'detail', '', ( #53 ) ) ;
#166 = LOCAL_TIME ( 14, 47, 1.000000000000000000, #189 ) ;
#167 = DIRECTION ( 'NONE',  ( -7.703719777548964432E-31, -1.000000000000000000, -2.168404344971014784E-16 ) ) ;
#168 = ORIENTED_EDGE ( 'NONE', *, *, #30, .F. ) ;
#169 = DIRECTION ( 'NONE',  ( 4.275831445896957731E-31, 1.000000000000000000, 1.224646799147353454E-16 ) ) ;
#170 = CARTESIAN_POINT ( 'NONE',  ( 1.179247499148221639E-14, 1.999999999999994005, 3.377499074759349185 ) ) ;
#171 = ADVANCED_FACE ( 'NONE', ( #118 ), #49, .F. ) ;
#172 = CIRCLE ( 'NONE', #55, 1.999999999999994449 ) ;
#173 = COORDINATED_UNIVERSAL_TIME_OFFSET ( 1, 0, .AHEAD. ) ;
#174 = PERSON ( 'UNSPECIFIED', 'UNSPECIFIED', 'UNSPECIFIED', ('UNSPECIFIED'), ('UNSPECIFIED'), ('UNSPECIFIED') ) ;
#175 = EDGE_CURVE ( 'NONE', #140, #140, #192, .T. ) ;
#176 = PERSON_AND_ORGANIZATION ( #174, #177 ) ;
#177 = ORGANIZATION ( 'UNSPECIFIED', 'UNSPECIFIED', '' ) ;
#178 = APPROVAL_ROLE ( '' ) ;
#179 = CC_DESIGN_PERSON_AND_ORGANIZATION_ASSIGNMENT ( #176, #95, ( #88 ) ) ;
#180 = DIRECTION ( 'NONE',  ( 7.703719777548964432E-31, 1.000000000000000000, 2.168404344971014784E-16 ) ) ;
#181 = DIRECTION ( 'NONE',  ( -3.491481338843133355E-15, 1.224646799147353207E-16, -1.000000000000000000 ) ) ;
#182 = DIRECTION ( 'NONE',  ( -3.491481338843133355E-15, 1.224646799147353207E-16, -1.000000000000000000 ) ) ;
#183 = DIRECTION ( 'NONE',  ( 7.703719777548964432E-31, 1.000000000000000000, 2.168404344971014784E-16 ) ) ;
#184 = DIRECTION ( 'NONE',  ( -3.491481338843133355E-15, 1.224646799147353207E-16, -1.000000000000000000 ) ) ;
#185 = LOCAL_TIME ( 14, 47, 1.000000000000000000, #52 ) ;
#186 = DATE_AND_TIME ( #123, #104 ) ;
#187 = CLOSED_SHELL ( 'NONE', ( #45, #154, #11, #153 ) ) ;
#188 = AXIS2_PLACEMENT_3D ( 'NONE', #150, #198, #183 ) ;
#189 = COORDINATED_UNIVERSAL_TIME_OFFSET ( 1, 0, .AHEAD. ) ;
#190 = CC_DESIGN_PERSON_AND_ORGANIZATION_ASSIGNMENT ( #19, #111, ( #88 ) ) ;
#191 = PERSON_AND_ORGANIZATION ( #174, #177 ) ;
#192 = CIRCLE ( 'NONE', #85, 0.05000000000000021094 ) ;
#193 = CC_DESIGN_PERSON_AND_ORGANIZATION_ASSIGNMENT ( #77, #65, ( #128 ) ) ;
#194 = ORIENTED_EDGE ( 'NONE', *, *, #175, .F. ) ;
#195 = AXIS2_PLACEMENT_3D ( 'NONE', #14, #139, #169 ) ;
#196 = CARTESIAN_POINT ( 'NONE',  ( 1.735266225405037214E-13, -6.086494591762344436E-15, 49.69999999999999574 ) ) ;
#197 = ORIENTED_EDGE ( 'NONE', *, *, #66, .F. ) ;
#198 = DIRECTION ( 'NONE',  ( -3.491481338843133355E-15, 1.224646799147353207E-16, -1.000000000000000000 ) ) ;
#199 = AXIS2_PLACEMENT_3D ( 'NONE', #10, #60, #116 ) ;
#200 =( NAMED_UNIT ( * ) PLANE_ANGLE_UNIT ( ) SI_UNIT ( $, .RADIAN. ) );
#201 = DIRECTION ( 'NONE',  ( -3.491481338843133355E-15, 1.224646799147353207E-16, -1.000000000000000000 ) ) ;
#202 = FACE_OUTER_BOUND ( 'NONE', #162, .T. ) ;
#203 = APPROVAL_ROLE ( '' ) ;
ENDSEC;
END-ISO-10303-21;
