ISO-10303-21;
HEADER;
FILE_DESCRIPTION (( 'STEP AP203' ),
    '1' );
FILE_NAME ('959714.step',
    '2021-11-25T13:47:01',
    ( '' ),
    ( '' ),
    'SwSTEP 2.0',
    'SolidWorks 2019',
    '' );
FILE_SCHEMA (( 'CONFIG_CONTROL_DESIGN' ));
ENDSEC;

DATA;
#1 = COORDINATED_UNIVERSAL_TIME_OFFSET ( 1, 0, .AHEAD. ) ;
#2 = APPROVAL_DATE_TIME ( #73, #25 ) ;
#3 = PERSON_AND_ORGANIZATION_ROLE ( 'design_supplier' ) ;
#4 = UNCERTAINTY_MEASURE_WITH_UNIT (LENGTH_MEASURE( 1.000000000000000082E-05 ), #43, 'distance_accuracy_value', 'NONE');
#5 = APPROVAL_STATUS ( 'not_yet_approved' ) ;
#6 = ADVANCED_FACE ( 'NONE', ( #26 ), #195, .F. ) ;
#7 = SHAPE_DEFINITION_REPRESENTATION ( #48, #28 ) ;
#8 = AXIS2_PLACEMENT_3D ( 'NONE', #81, #64, #113 ) ;
#9 = EDGE_LOOP ( 'NONE', ( #76 ) ) ;
#10 = CARTESIAN_POINT ( 'NONE',  ( 1.745740669421566678E-13, -6.123233995736766085E-15, 50.00000000000000000 ) ) ;
#11 = DIRECTION ( 'NONE',  ( -3.491481338843133355E-15, 1.224646799147353207E-16, -1.000000000000000000 ) ) ;
#12 = MANIFOLD_SOLID_BREP ( 'Corps-Déplacer/Copier1[2]', #29 ) ;
#13 = ORIENTED_EDGE ( 'NONE', *, *, #96, .T. ) ;
#14 = DIRECTION ( 'NONE',  ( -3.491481338843133355E-15, 1.224646799147353207E-16, -1.000000000000000000 ) ) ;
#15 = PRODUCT_DEFINITION_FORMATION_WITH_SPECIFIED_SOURCE ( 'ANY', '', #67, .NOT_KNOWN. ) ;
#16 = DIRECTION ( 'NONE',  ( -3.491481338843133355E-15, 1.224646799147353207E-16, -1.000000000000000000 ) ) ;
#17 = FACE_OUTER_BOUND ( 'NONE', #171, .T. ) ;
#18 = DIRECTION ( 'NONE',  ( 7.703719777548960053E-31, 1.000000000000000000, 2.168404344971013552E-16 ) ) ;
#19 = CC_DESIGN_SECURITY_CLASSIFICATION ( #110, ( #15 ) ) ;
#20 = APPLICATION_CONTEXT ( 'configuration controlled 3d designs of mechanical parts and assemblies' ) ;
#21 = PERSON_AND_ORGANIZATION ( #177, #77 ) ;
#22 = AXIS2_PLACEMENT_3D ( 'NONE', #54, #194, #166 ) ;
#23 = MECHANICAL_CONTEXT ( 'NONE', #20, 'mechanical' ) ;
#24 = PERSON_AND_ORGANIZATION_ROLE ( 'classification_officer' ) ;
#25 = APPROVAL ( #36, 'UNSPECIFIED' ) ;
#26 = FACE_OUTER_BOUND ( 'NONE', #170, .T. ) ;
#27 = CARTESIAN_POINT ( 'NONE',  ( -2.251917752963704032E-32, 7.898664207163915044E-34, -6.449748786885551402E-18 ) ) ;
#28 = ADVANCED_BREP_SHAPE_REPRESENTATION ( '959714', ( #160, #12, #22 ), #125 ) ;
#29 = CLOSED_SHELL ( 'NONE', ( #78, #182, #63 ) ) ;
#30 = CIRCLE ( 'NONE', #97, 2.000000000000001332 ) ;
#31 = ADVANCED_FACE ( 'NONE', ( #139, #91 ), #102, .T. ) ;
#32 = CARTESIAN_POINT ( 'NONE',  ( 1.194366056829609949E-14, 1.999999999999995337, 3.420800344948573990 ) ) ;
#33 = DIRECTION ( 'NONE',  ( 7.703719777548960053E-31, 1.000000000000000000, 2.168404344971013552E-16 ) ) ;
#34 = DIRECTION ( 'NONE',  ( 4.275831445896958607E-31, 1.000000000000000000, 1.224646799147353454E-16 ) ) ;
#35 = APPROVAL_PERSON_ORGANIZATION ( #56, #40, #135 ) ;
#36 = APPROVAL_STATUS ( 'not_yet_approved' ) ;
#37 = PERSON_AND_ORGANIZATION ( #177, #77 ) ;
#38 = CC_DESIGN_APPROVAL ( #40, ( #141 ) ) ;
#39 = CIRCLE ( 'NONE', #119, 1.999999999999995781 ) ;
#40 = APPROVAL ( #180, 'UNSPECIFIED' ) ;
#41 = EDGE_LOOP ( 'NONE', ( #93 ) ) ;
#42 = CC_DESIGN_PERSON_AND_ORGANIZATION_ASSIGNMENT ( #107, #89, ( #15 ) ) ;
#43 =( LENGTH_UNIT ( ) NAMED_UNIT ( * ) SI_UNIT ( .MILLI., .METRE. ) );
#44 = DIRECTION ( 'NONE',  ( -3.491481338843133355E-15, 1.224646799147353207E-16, -1.000000000000000000 ) ) ;
#45 = AXIS2_PLACEMENT_3D ( 'NONE', #27, #11, #34 ) ;
#46 = DIRECTION ( 'NONE',  ( -4.275831445896958607E-31, -1.000000000000000000, -1.224646799147353207E-16 ) ) ;
#47 = VERTEX_POINT ( 'NONE', #32 ) ;
#48 = PRODUCT_DEFINITION_SHAPE ( 'NONE', 'NONE',  #141 ) ;
#49 = CARTESIAN_POINT ( 'NONE',  ( 1.194366056829609791E-14, -1.483535666252965559E-15, 3.420800344948573546 ) ) ;
#50 = CC_DESIGN_APPROVAL ( #25, ( #15 ) ) ;
#51 = DATE_AND_TIME ( #165, #84 ) ;
#52 = PERSON_AND_ORGANIZATION_ROLE ( 'design_owner' ) ;
#53 = EDGE_CURVE ( 'NONE', #187, #187, #164, .T. ) ;
#54 = CARTESIAN_POINT ( 'NONE',  ( 0.0000000000000000000, 0.0000000000000000000, 0.0000000000000000000 ) ) ;
#55 = AXIS2_PLACEMENT_3D ( 'NONE', #202, #14, #131 ) ;
#56 = PERSON_AND_ORGANIZATION ( #177, #77 ) ;
#57 = ORIENTED_EDGE ( 'NONE', *, *, #96, .F. ) ;
#58 = AXIS2_PLACEMENT_3D ( 'NONE', #115, #145, #111 ) ;
#59 = DIRECTION ( 'NONE',  ( 0.0000000000000000000, 1.000000000000000000, 0.0000000000000000000 ) ) ;
#60 = EDGE_LOOP ( 'NONE', ( #138 ) ) ;
#61 = LOCAL_TIME ( 14, 47, 0.0000000000000000000, #116 ) ;
#62 = VERTEX_POINT ( 'NONE', #114 ) ;
#63 = ADVANCED_FACE ( 'NONE', ( #94 ), #188, .T. ) ;
#64 = DIRECTION ( 'NONE',  ( 3.491481338843133355E-15, -1.224646799147353207E-16, 1.000000000000000000 ) ) ;
#65 = CARTESIAN_POINT ( 'NONE',  ( -1.182959891489476121E-32, 0.02499999999999972730, -3.388131789017201356E-18 ) ) ;
#66 = AXIS2_PLACEMENT_3D ( 'NONE', #10, #197, #59 ) ;
#67 = PRODUCT ( '959714', '959714', '', ( #23 ) ) ;
#68 = CYLINDRICAL_SURFACE ( 'NONE', #58, 1.999999999999998224 ) ;
#69 =( NAMED_UNIT ( * ) PLANE_ANGLE_UNIT ( ) SI_UNIT ( $, .RADIAN. ) );
#70 = DATE_AND_TIME ( #137, #136 ) ;
#71 = AXIS2_PLACEMENT_3D ( 'NONE', #173, #186, #200 ) ;
#72 = DATE_AND_TIME ( #153, #159 ) ;
#73 = DATE_AND_TIME ( #178, #154 ) ;
#74 = AXIS2_PLACEMENT_3D ( 'NONE', #174, #175, #46 ) ;
#75 = EDGE_LOOP ( 'NONE', ( #13 ) ) ;
#76 = ORIENTED_EDGE ( 'NONE', *, *, #172, .T. ) ;
#77 = ORGANIZATION ( 'UNSPECIFIED', 'UNSPECIFIED', '' ) ;
#78 = ADVANCED_FACE ( 'NONE', ( #201 ), #82, .F. ) ;
#79 = EDGE_LOOP ( 'NONE', ( #157 ) ) ;
#80 = FACE_OUTER_BOUND ( 'NONE', #60, .T. ) ;
#81 = CARTESIAN_POINT ( 'NONE',  ( -1.125958876481852016E-32, 3.949332103581957522E-34, -3.224874393442775701E-18 ) ) ;
#82 = PLANE ( 'NONE',  #8 ) ;
#83 = DIRECTION ( 'NONE',  ( 3.491481338843133355E-15, -1.224646799147353207E-16, 1.000000000000000000 ) ) ;
#84 = LOCAL_TIME ( 14, 47, 0.0000000000000000000, #117 ) ;
#85 = CC_DESIGN_DATE_AND_TIME_ASSIGNMENT ( #51, #151, ( #141 ) ) ;
#86 = PERSON_AND_ORGANIZATION_ROLE ( 'creator' ) ;
#87 = APPLICATION_PROTOCOL_DEFINITION ( 'international standard', 'config_control_design', 1994, #134 ) ;
#88 = COORDINATED_UNIVERSAL_TIME_OFFSET ( 1, 0, .AHEAD. ) ;
#89 = PERSON_AND_ORGANIZATION_ROLE ( 'creator' ) ;
#90 = DESIGN_CONTEXT ( 'detailed design', #134, 'design' ) ;
#91 = FACE_BOUND ( 'NONE', #9, .T. ) ;
#92 = CIRCLE ( 'NONE', #55, 1.700000000000001510 ) ;
#93 = ORIENTED_EDGE ( 'NONE', *, *, #155, .T. ) ;
#94 = FACE_OUTER_BOUND ( 'NONE', #124, .T. ) ;
#95 = CLOSED_SHELL ( 'NONE', ( #128, #176, #31, #6 ) ) ;
#96 = EDGE_CURVE ( 'NONE', #47, #47, #39, .T. ) ;
#97 = AXIS2_PLACEMENT_3D ( 'NONE', #147, #163, #98 ) ;
#98 = DIRECTION ( 'NONE',  ( 0.0000000000000000000, 1.000000000000000000, 0.0000000000000000000 ) ) ;
#99 = CARTESIAN_POINT ( 'NONE',  ( 1.194366056829609791E-14, -4.189272192963432147E-16, 3.420800344948573546 ) ) ;
#100 = CC_DESIGN_PERSON_AND_ORGANIZATION_ASSIGNMENT ( #21, #52, ( #67 ) ) ;
#101 = CARTESIAN_POINT ( 'NONE',  ( 1.194366056829609949E-14, 1.999999999999995337, 3.420800344948573990 ) ) ;
#102 = CONICAL_SURFACE ( 'NONE', #66, 1.700000000000001510, 0.7853981633974338461 ) ;
#103 = DATE_TIME_ROLE ( 'classification_date' ) ;
#104 = CALENDAR_DATE ( 2021, 25, 11 ) ;
#105 = APPLICATION_PROTOCOL_DEFINITION ( 'international standard', 'config_control_design', 1994, #20 ) ;
#106 = PERSON_AND_ORGANIZATION ( #177, #77 ) ;
#107 = PERSON_AND_ORGANIZATION ( #177, #77 ) ;
#108 = DIRECTION ( 'NONE',  ( 4.275831445896958607E-31, 1.000000000000000000, 1.224646799147353207E-16 ) ) ;
#109 = EDGE_LOOP ( 'NONE', ( #184 ) ) ;
#110 = SECURITY_CLASSIFICATION ( '', '', #168 ) ;
#111 = DIRECTION ( 'NONE',  ( 4.275831445896957731E-31, 1.000000000000000000, 1.224646799147353207E-16 ) ) ;
#112 = VERTEX_POINT ( 'NONE', #101 ) ;
#113 = DIRECTION ( 'NONE',  ( -4.275831445896958607E-31, -1.000000000000000000, -1.224646799147353207E-16 ) ) ;
#114 = CARTESIAN_POINT ( 'NONE',  ( 1.735266225405037214E-13, 1.999999999999995337, 49.69999999999999574 ) ) ;
#115 = CARTESIAN_POINT ( 'NONE',  ( 0.0000000000000000000, 0.0000000000000000000, 0.0000000000000000000 ) ) ;
#116 = COORDINATED_UNIVERSAL_TIME_OFFSET ( 1, 0, .AHEAD. ) ;
#117 = COORDINATED_UNIVERSAL_TIME_OFFSET ( 1, 0, .AHEAD. ) ;
#118 = PERSON_AND_ORGANIZATION ( #177, #77 ) ;
#119 = AXIS2_PLACEMENT_3D ( 'NONE', #99, #16, #33 ) ;
#120 = APPROVAL_ROLE ( '' ) ;
#121 = CARTESIAN_POINT ( 'NONE',  ( 1.745740669421566678E-13, 1.274795815262571030E-32, 50.00000000000000000 ) ) ;
#122 = APPROVAL ( #5, 'UNSPECIFIED' ) ;
#123 = EDGE_LOOP ( 'NONE', ( #183 ) ) ;
#124 = EDGE_LOOP ( 'NONE', ( #57 ) ) ;
#125 =( GEOMETRIC_REPRESENTATION_CONTEXT ( 3 ) GLOBAL_UNCERTAINTY_ASSIGNED_CONTEXT ( ( #4 ) ) GLOBAL_UNIT_ASSIGNED_CONTEXT ( ( #43, #69, #162 ) ) REPRESENTATION_CONTEXT ( 'NONE', 'WORKASPACE' ) );
#126 = CC_DESIGN_DATE_AND_TIME_ASSIGNMENT ( #72, #103, ( #110 ) ) ;
#127 = FACE_OUTER_BOUND ( 'NONE', #41, .T. ) ;
#128 = ADVANCED_FACE ( 'NONE', ( #127 ), #203, .F. ) ;
#129 = CARTESIAN_POINT ( 'NONE',  ( 1.745740669421566678E-13, 1.699999999999995293, 50.00000000000000000 ) ) ;
#130 = FACE_OUTER_BOUND ( 'NONE', #75, .T. ) ;
#131 = DIRECTION ( 'NONE',  ( 0.0000000000000000000, 1.000000000000000000, 0.0000000000000000000 ) ) ;
#132 = DATE_AND_TIME ( #104, #61 ) ;
#133 = PERSON_AND_ORGANIZATION ( #177, #77 ) ;
#134 = APPLICATION_CONTEXT ( 'configuration controlled 3d designs of mechanical parts and assemblies' ) ;
#135 = APPROVAL_ROLE ( '' ) ;
#136 = LOCAL_TIME ( 14, 47, 0.0000000000000000000, #1 ) ;
#137 = CALENDAR_DATE ( 2021, 25, 11 ) ;
#138 = ORIENTED_EDGE ( 'NONE', *, *, #152, .T. ) ;
#139 = FACE_OUTER_BOUND ( 'NONE', #123, .T. ) ;
#140 = AXIS2_PLACEMENT_3D ( 'NONE', #49, #83, #158 ) ;
#141 = PRODUCT_DEFINITION ( 'UNKNOWN', '', #15, #90 ) ;
#142 = AXIS2_PLACEMENT_3D ( 'NONE', #121, #181, #108 ) ;
#143 = FACE_BOUND ( 'NONE', #109, .T. ) ;
#144 = VERTEX_POINT ( 'NONE', #129 ) ;
#145 = DIRECTION ( 'NONE',  ( -3.491481338843133355E-15, 1.224646799147353207E-16, -1.000000000000000000 ) ) ;
#146 = CARTESIAN_POINT ( 'NONE',  ( 1.194366056829609791E-14, -4.189272192963432147E-16, 3.420800344948573546 ) ) ;
#147 = CARTESIAN_POINT ( 'NONE',  ( 1.735266225405037214E-13, -6.086494591762344436E-15, 49.69999999999999574 ) ) ;
#148 = PRODUCT_RELATED_PRODUCT_CATEGORY ( 'detail', '', ( #67 ) ) ;
#149 = PERSON_AND_ORGANIZATION ( #177, #77 ) ;
#150 = APPROVAL_PERSON_ORGANIZATION ( #106, #25, #120 ) ;
#151 = DATE_TIME_ROLE ( 'creation_date' ) ;
#152 = EDGE_CURVE ( 'NONE', #62, #62, #30, .T. ) ;
#153 = CALENDAR_DATE ( 2021, 25, 11 ) ;
#154 = LOCAL_TIME ( 14, 47, 0.0000000000000000000, #191 ) ;
#155 = EDGE_CURVE ( 'NONE', #112, #112, #167, .T. ) ;
#156 = ORIENTED_EDGE ( 'NONE', *, *, #172, .F. ) ;
#157 = ORIENTED_EDGE ( 'NONE', *, *, #53, .T. ) ;
#158 = DIRECTION ( 'NONE',  ( -4.275831445896958607E-31, -1.000000000000000000, -1.224646799147353207E-16 ) ) ;
#159 = LOCAL_TIME ( 14, 47, 0.0000000000000000000, #88 ) ;
#160 = MANIFOLD_SOLID_BREP ( 'Corps-Déplacer/Copier1[1]', #95 ) ;
#161 = CC_DESIGN_PERSON_AND_ORGANIZATION_ASSIGNMENT ( #37, #3, ( #15 ) ) ;
#162 =( NAMED_UNIT ( * ) SI_UNIT ( $, .STERADIAN. ) SOLID_ANGLE_UNIT ( ) );
#163 = DIRECTION ( 'NONE',  ( -3.491481338843133355E-15, 1.224646799147353207E-16, -1.000000000000000000 ) ) ;
#164 = CIRCLE ( 'NONE', #45, 0.02499999999999972730 ) ;
#165 = CALENDAR_DATE ( 2021, 25, 11 ) ;
#166 = DIRECTION ( 'NONE',  ( 1.000000000000000000, 0.0000000000000000000, 0.0000000000000000000 ) ) ;
#167 = CIRCLE ( 'NONE', #185, 1.999999999999995781 ) ;
#168 = SECURITY_CLASSIFICATION_LEVEL ( 'unclassified' ) ;
#169 = APPROVAL_DATE_TIME ( #132, #122 ) ;
#170 = EDGE_LOOP ( 'NONE', ( #156 ) ) ;
#171 = EDGE_LOOP ( 'NONE', ( #199 ) ) ;
#172 = EDGE_CURVE ( 'NONE', #144, #144, #92, .T. ) ;
#173 = CARTESIAN_POINT ( 'NONE',  ( 1.194366056829609791E-14, -4.189272192963432147E-16, 3.420800344948573546 ) ) ;
#174 = CARTESIAN_POINT ( 'NONE',  ( 1.194366056829609791E-14, -1.483535666252965559E-15, 3.420800344948573546 ) ) ;
#175 = DIRECTION ( 'NONE',  ( 3.491481338843133355E-15, -1.224646799147353207E-16, 1.000000000000000000 ) ) ;
#176 = ADVANCED_FACE ( 'NONE', ( #17, #80 ), #68, .T. ) ;
#177 = PERSON ( 'UNSPECIFIED', 'UNSPECIFIED', 'UNSPECIFIED', ('UNSPECIFIED'), ('UNSPECIFIED'), ('UNSPECIFIED') ) ;
#178 = CALENDAR_DATE ( 2021, 25, 11 ) ;
#179 = APPROVAL_PERSON_ORGANIZATION ( #133, #122, #192 ) ;
#180 = APPROVAL_STATUS ( 'not_yet_approved' ) ;
#181 = DIRECTION ( 'NONE',  ( -3.491481338843133355E-15, 1.224646799147353207E-16, -1.000000000000000000 ) ) ;
#182 = ADVANCED_FACE ( 'NONE', ( #143, #130 ), #193, .T. ) ;
#183 = ORIENTED_EDGE ( 'NONE', *, *, #152, .F. ) ;
#184 = ORIENTED_EDGE ( 'NONE', *, *, #53, .F. ) ;
#185 = AXIS2_PLACEMENT_3D ( 'NONE', #146, #44, #18 ) ;
#186 = DIRECTION ( 'NONE',  ( 3.491481338843133355E-15, -1.224646799147353207E-16, 1.000000000000000000 ) ) ;
#187 = VERTEX_POINT ( 'NONE', #65 ) ;
#188 = PLANE ( 'NONE',  #74 ) ;
#189 = CC_DESIGN_PERSON_AND_ORGANIZATION_ASSIGNMENT ( #149, #24, ( #110 ) ) ;
#190 = APPROVAL_DATE_TIME ( #70, #40 ) ;
#191 = COORDINATED_UNIVERSAL_TIME_OFFSET ( 1, 0, .AHEAD. ) ;
#192 = APPROVAL_ROLE ( '' ) ;
#193 = CONICAL_SURFACE ( 'NONE', #71, 1.999999999999995781, 0.5235987755982928205 ) ;
#194 = DIRECTION ( 'NONE',  ( 0.0000000000000000000, 0.0000000000000000000, 1.000000000000000000 ) ) ;
#195 = PLANE ( 'NONE',  #142 ) ;
#196 = CC_DESIGN_APPROVAL ( #122, ( #110 ) ) ;
#197 = DIRECTION ( 'NONE',  ( -3.491481338843133355E-15, 1.224646799147353207E-16, -1.000000000000000000 ) ) ;
#198 = CC_DESIGN_PERSON_AND_ORGANIZATION_ASSIGNMENT ( #118, #86, ( #141 ) ) ;
#199 = ORIENTED_EDGE ( 'NONE', *, *, #155, .F. ) ;
#200 = DIRECTION ( 'NONE',  ( -7.703719777548960053E-31, -1.000000000000000000, -2.168404344971013552E-16 ) ) ;
#201 = FACE_OUTER_BOUND ( 'NONE', #79, .T. ) ;
#202 = CARTESIAN_POINT ( 'NONE',  ( 1.745740669421566678E-13, -6.123233995736766085E-15, 50.00000000000000000 ) ) ;
#203 = PLANE ( 'NONE',  #140 ) ;
ENDSEC;
END-ISO-10303-21;
