ISO-10303-21;
HEADER;
FILE_DESCRIPTION (( 'STEP AP203' ),
    '1' );
FILE_NAME ('959713.step',
    '2021-11-25T13:47:00',
    ( '' ),
    ( '' ),
    'SwSTEP 2.0',
    'SolidWorks 2019',
    '' );
FILE_SCHEMA (( 'CONFIG_CONTROL_DESIGN' ));
ENDSEC;

DATA;
#1 = SHAPE_DEFINITION_REPRESENTATION ( #16, #132 ) ;
#2 = APPROVAL_PERSON_ORGANIZATION ( #172, #144, #178 ) ;
#3 = DIRECTION ( 'NONE',  ( -4.275831445896958607E-31, -1.000000000000000000, -1.224646799147353207E-16 ) ) ;
#4 = ORIENTED_EDGE ( 'NONE', *, *, #109, .F. ) ;
#5 = DATE_AND_TIME ( #136, #71 ) ;
#6 = CC_DESIGN_PERSON_AND_ORGANIZATION_ASSIGNMENT ( #193, #36, ( #112 ) ) ;
#7 = AXIS2_PLACEMENT_3D ( 'NONE', #199, #10, #135 ) ;
#8 = ORIENTED_EDGE ( 'NONE', *, *, #164, .F. ) ;
#9 = VERTEX_POINT ( 'NONE', #146 ) ;
#10 = DIRECTION ( 'NONE',  ( -3.491481338843133355E-15, 1.224646799147353207E-16, -1.000000000000000000 ) ) ;
#11 = CALENDAR_DATE ( 2021, 25, 11 ) ;
#12 = VERTEX_POINT ( 'NONE', #76 ) ;
#13 = CC_DESIGN_PERSON_AND_ORGANIZATION_ASSIGNMENT ( #124, #186, ( #85 ) ) ;
#14 = CYLINDRICAL_SURFACE ( 'NONE', #70, 1.499999999999996891 ) ;
#15 = DIRECTION ( 'NONE',  ( 4.275831445896958607E-31, 1.000000000000000000, 1.224646799147353207E-16 ) ) ;
#16 = PRODUCT_DEFINITION_SHAPE ( 'NONE', 'NONE',  #112 ) ;
#17 = DATE_AND_TIME ( #163, #162 ) ;
#18 = APPLICATION_CONTEXT ( 'configuration controlled 3d designs of mechanical parts and assemblies' ) ;
#19 = APPROVAL_ROLE ( '' ) ;
#20 = PERSON_AND_ORGANIZATION_ROLE ( 'design_owner' ) ;
#21 = EDGE_LOOP ( 'NONE', ( #4 ) ) ;
#22 = CLOSED_SHELL ( 'NONE', ( #40, #97, #176 ) ) ;
#23 = DIRECTION ( 'NONE',  ( 0.0000000000000000000, 1.000000000000000000, 0.0000000000000000000 ) ) ;
#24 = COORDINATED_UNIVERSAL_TIME_OFFSET ( 1, 0, .AHEAD. ) ;
#25 = ADVANCED_FACE ( 'NONE', ( #127 ), #145, .F. ) ;
#26 = CARTESIAN_POINT ( 'NONE',  ( 8.768763455204724681E-15, -3.075668192302264886E-16, 2.511473670974901040 ) ) ;
#27 = CARTESIAN_POINT ( 'NONE',  ( 8.768763455204724681E-15, -3.075668192302264886E-16, 2.511473670974901040 ) ) ;
#28 = PRODUCT_RELATED_PRODUCT_CATEGORY ( 'detail', '', ( #42 ) ) ;
#29 = AXIS2_PLACEMENT_3D ( 'NONE', #66, #126, #180 ) ;
#30 = EDGE_LOOP ( 'NONE', ( #154 ) ) ;
#31 = PLANE ( 'NONE',  #99 ) ;
#32 = DIRECTION ( 'NONE',  ( 0.0000000000000000000, 0.0000000000000000000, 1.000000000000000000 ) ) ;
#33 = PLANE ( 'NONE',  #147 ) ;
#34 = CIRCLE ( 'NONE', #37, 0.04999999999999996808 ) ;
#35 = EDGE_LOOP ( 'NONE', ( #48 ) ) ;
#36 = PERSON_AND_ORGANIZATION_ROLE ( 'creator' ) ;
#37 = AXIS2_PLACEMENT_3D ( 'NONE', #157, #90, #15 ) ;
#38 = DIRECTION ( 'NONE',  ( 0.0000000000000000000, 1.000000000000000000, 0.0000000000000000000 ) ) ;
#39 = AXIS2_PLACEMENT_3D ( 'NONE', #173, #137, #122 ) ;
#40 = ADVANCED_FACE ( 'NONE', ( #105 ), #31, .F. ) ;
#41 = APPROVAL_PERSON_ORGANIZATION ( #52, #74, #19 ) ;
#42 = PRODUCT ( '959713', '959713', '', ( #166 ) ) ;
#43 = APPROVAL_STATUS ( 'not_yet_approved' ) ;
#44 = EDGE_LOOP ( 'NONE', ( #131 ) ) ;
#45 = CLOSED_SHELL ( 'NONE', ( #25, #106, #201, #50 ) ) ;
#46 = COORDINATED_UNIVERSAL_TIME_OFFSET ( 1, 0, .AHEAD. ) ;
#47 = ORIENTED_EDGE ( 'NONE', *, *, #181, .T. ) ;
#48 = ORIENTED_EDGE ( 'NONE', *, *, #164, .T. ) ;
#49 = APPROVAL_ROLE ( '' ) ;
#50 = ADVANCED_FACE ( 'NONE', ( #68 ), #33, .F. ) ;
#51 = CALENDAR_DATE ( 2021, 25, 11 ) ;
#52 = PERSON_AND_ORGANIZATION ( #202, #61 ) ;
#53 = DIRECTION ( 'NONE',  ( 3.491481338843133355E-15, -1.224646799147353207E-16, 1.000000000000000000 ) ) ;
#54 = DATE_AND_TIME ( #159, #103 ) ;
#55 = VERTEX_POINT ( 'NONE', #118 ) ;
#56 = APPROVAL_STATUS ( 'not_yet_approved' ) ;
#57 = CONICAL_SURFACE ( 'NONE', #177, 1.499999999999995781, 0.5235987755982927094 ) ;
#58 = CARTESIAN_POINT ( 'NONE',  ( 8.768763455204724681E-15, 1.499999999999995559, 2.511473670974901040 ) ) ;
#59 = DIRECTION ( 'NONE',  ( -3.491481338843133355E-15, 1.224646799147353207E-16, -1.000000000000000000 ) ) ;
#60 = DIRECTION ( 'NONE',  ( 3.491481338843133355E-15, -1.224646799147353207E-16, 1.000000000000000000 ) ) ;
#61 = ORGANIZATION ( 'UNSPECIFIED', 'UNSPECIFIED', '' ) ;
#62 = AXIS2_PLACEMENT_3D ( 'NONE', #192, #32, #128 ) ;
#63 = PERSON_AND_ORGANIZATION_ROLE ( 'classification_officer' ) ;
#64 = CC_DESIGN_PERSON_AND_ORGANIZATION_ASSIGNMENT ( #73, #63, ( #77 ) ) ;
#65 = LOCAL_TIME ( 14, 47, 0.0000000000000000000, #184 ) ;
#66 = CARTESIAN_POINT ( 'NONE',  ( 8.768763455204724681E-15, 1.124819836996389785E-32, 2.511473670974901040 ) ) ;
#67 =( LENGTH_UNIT ( ) NAMED_UNIT ( * ) SI_UNIT ( .MILLI., .METRE. ) );
#68 = FACE_OUTER_BOUND ( 'NONE', #21, .T. ) ;
#69 = COORDINATED_UNIVERSAL_TIME_OFFSET ( 1, 0, .AHEAD. ) ;
#70 = AXIS2_PLACEMENT_3D ( 'NONE', #171, #59, #139 ) ;
#71 = LOCAL_TIME ( 14, 47, 0.0000000000000000000, #24 ) ;
#72 = FACE_OUTER_BOUND ( 'NONE', #183, .T. ) ;
#73 = PERSON_AND_ORGANIZATION ( #202, #61 ) ;
#74 = APPROVAL ( #56, 'UNSPECIFIED' ) ;
#75 = FACE_BOUND ( 'NONE', #100, .T. ) ;
#76 = CARTESIAN_POINT ( 'NONE',  ( 1.316288464743861212E-13, 1.499999999999994005, 37.69999999999999574 ) ) ;
#77 = SECURITY_CLASSIFICATION ( '', '', #101 ) ;
#78 = DIRECTION ( 'NONE',  ( 4.275831445896958607E-31, 1.000000000000000000, 1.224646799147353207E-16 ) ) ;
#79 = APPLICATION_CONTEXT ( 'configuration controlled 3d designs of mechanical parts and assemblies' ) ;
#80 = AXIS2_PLACEMENT_3D ( 'NONE', #111, #93, #23 ) ;
#81 = CC_DESIGN_PERSON_AND_ORGANIZATION_ASSIGNMENT ( #168, #20, ( #42 ) ) ;
#82 = APPROVAL_DATE_TIME ( #54, #74 ) ;
#83 =( NAMED_UNIT ( * ) SI_UNIT ( $, .STERADIAN. ) SOLID_ANGLE_UNIT ( ) );
#84 = COORDINATED_UNIVERSAL_TIME_OFFSET ( 1, 0, .AHEAD. ) ;
#85 = PRODUCT_DEFINITION_FORMATION_WITH_SPECIFIED_SOURCE ( 'ANY', '', #42, .NOT_KNOWN. ) ;
#86 = EDGE_LOOP ( 'NONE', ( #47 ) ) ;
#87 = PERSON_AND_ORGANIZATION ( #202, #61 ) ;
#88 = DESIGN_CONTEXT ( 'detailed design', #18, 'design' ) ;
#89 = CC_DESIGN_APPROVAL ( #95, ( #112 ) ) ;
#90 = DIRECTION ( 'NONE',  ( -3.491481338843133355E-15, 1.224646799147353207E-16, -1.000000000000000000 ) ) ;
#91 = DIRECTION ( 'NONE',  ( -3.491481338843133355E-15, 1.224646799147353207E-16, -1.000000000000000000 ) ) ;
#92 = FACE_OUTER_BOUND ( 'NONE', #44, .T. ) ;
#93 = DIRECTION ( 'NONE',  ( -3.491481338843133355E-15, 1.224646799147353207E-16, -1.000000000000000000 ) ) ;
#94 = AXIS2_PLACEMENT_3D ( 'NONE', #110, #197, #38 ) ;
#95 = APPROVAL ( #150, 'UNSPECIFIED' ) ;
#96 = CC_DESIGN_APPROVAL ( #144, ( #77 ) ) ;
#97 = ADVANCED_FACE ( 'NONE', ( #160, #107 ), #57, .T. ) ;
#98 = APPLICATION_PROTOCOL_DEFINITION ( 'international standard', 'config_control_design', 1994, #18 ) ;
#99 = AXIS2_PLACEMENT_3D ( 'NONE', #167, #148, #3 ) ;
#100 = EDGE_LOOP ( 'NONE', ( #179 ) ) ;
#101 = SECURITY_CLASSIFICATION_LEVEL ( 'unclassified' ) ;
#102 = ORIENTED_EDGE ( 'NONE', *, *, #196, .T. ) ;
#103 = LOCAL_TIME ( 14, 47, 0.0000000000000000000, #84 ) ;
#104 = CARTESIAN_POINT ( 'NONE',  ( 1.326762908760390423E-13, 8.998558695971067645E-33, 38.00000000000000000 ) ) ;
#105 = FACE_OUTER_BOUND ( 'NONE', #86, .T. ) ;
#106 = ADVANCED_FACE ( 'NONE', ( #72, #92 ), #14, .T. ) ;
#107 = FACE_OUTER_BOUND ( 'NONE', #114, .T. ) ;
#108 =( GEOMETRIC_REPRESENTATION_CONTEXT ( 3 ) GLOBAL_UNCERTAINTY_ASSIGNED_CONTEXT ( ( #149 ) ) GLOBAL_UNIT_ASSIGNED_CONTEXT ( ( #67, #175, #83 ) ) REPRESENTATION_CONTEXT ( 'NONE', 'WORKASPACE' ) );
#109 = EDGE_CURVE ( 'NONE', #55, #55, #187, .T. ) ;
#110 = CARTESIAN_POINT ( 'NONE',  ( 1.326762908760390423E-13, -4.653657836759941941E-15, 38.00000000000000000 ) ) ;
#111 = CARTESIAN_POINT ( 'NONE',  ( 1.326762908760390423E-13, -4.653657836759941941E-15, 38.00000000000000000 ) ) ;
#112 = PRODUCT_DEFINITION ( 'UNKNOWN', '', #85, #88 ) ;
#113 = APPROVAL_DATE_TIME ( #5, #144 ) ;
#114 = EDGE_LOOP ( 'NONE', ( #102 ) ) ;
#115 = ORIENTED_EDGE ( 'NONE', *, *, #196, .F. ) ;
#116 = CONICAL_SURFACE ( 'NONE', #94, 1.199999999999998623, 0.7853981633974453924 ) ;
#117 = DATE_AND_TIME ( #51, #65 ) ;
#118 = CARTESIAN_POINT ( 'NONE',  ( 1.326762908760390423E-13, 1.199999999999993960, 38.00000000000000000 ) ) ;
#119 = AXIS2_PLACEMENT_3D ( 'NONE', #198, #53, #140 ) ;
#120 = PERSON_AND_ORGANIZATION_ROLE ( 'design_supplier' ) ;
#121 = VERTEX_POINT ( 'NONE', #151 ) ;
#122 = DIRECTION ( 'NONE',  ( 0.0000000000000000000, 1.000000000000000000, 0.0000000000000000000 ) ) ;
#123 = DATE_AND_TIME ( #11, #182 ) ;
#124 = PERSON_AND_ORGANIZATION ( #202, #61 ) ;
#125 = CIRCLE ( 'NONE', #39, 1.499999999999998446 ) ;
#126 = DIRECTION ( 'NONE',  ( 3.491481338843133355E-15, -1.224646799147353207E-16, 1.000000000000000000 ) ) ;
#127 = FACE_OUTER_BOUND ( 'NONE', #35, .T. ) ;
#128 = DIRECTION ( 'NONE',  ( 1.000000000000000000, 0.0000000000000000000, 0.0000000000000000000 ) ) ;
#129 = EDGE_LOOP ( 'NONE', ( #194 ) ) ;
#130 = CC_DESIGN_DATE_AND_TIME_ASSIGNMENT ( #123, #134, ( #77 ) ) ;
#131 = ORIENTED_EDGE ( 'NONE', *, *, #141, .T. ) ;
#132 = ADVANCED_BREP_SHAPE_REPRESENTATION ( '959713', ( #156, #155, #62 ), #108 ) ;
#133 = DIRECTION ( 'NONE',  ( -3.491481338843133355E-15, 1.224646799147353207E-16, -1.000000000000000000 ) ) ;
#134 = DATE_TIME_ROLE ( 'classification_date' ) ;
#135 = DIRECTION ( 'NONE',  ( 0.0000000000000000000, 1.000000000000000000, 0.0000000000000000000 ) ) ;
#136 = CALENDAR_DATE ( 2021, 25, 11 ) ;
#137 = DIRECTION ( 'NONE',  ( -3.491481338843133355E-15, 1.224646799147353207E-16, -1.000000000000000000 ) ) ;
#138 = AXIS2_PLACEMENT_3D ( 'NONE', #27, #133, #161 ) ;
#139 = DIRECTION ( 'NONE',  ( 4.275831445896958607E-31, 1.000000000000000000, 1.224646799147353454E-16 ) ) ;
#140 = DIRECTION ( 'NONE',  ( -4.275831445896958607E-31, -1.000000000000000000, -1.224646799147353207E-16 ) ) ;
#141 = EDGE_CURVE ( 'NONE', #12, #12, #125, .T. ) ;
#142 = CC_DESIGN_PERSON_AND_ORGANIZATION_ASSIGNMENT ( #143, #120, ( #85 ) ) ;
#143 = PERSON_AND_ORGANIZATION ( #202, #61 ) ;
#144 = APPROVAL ( #43, 'UNSPECIFIED' ) ;
#145 = PLANE ( 'NONE',  #29 ) ;
#146 = CARTESIAN_POINT ( 'NONE',  ( 8.768763455204724681E-15, 1.499999999999995559, 2.511473670974901040 ) ) ;
#147 = AXIS2_PLACEMENT_3D ( 'NONE', #104, #91, #78 ) ;
#148 = DIRECTION ( 'NONE',  ( 3.491481338843133355E-15, -1.224646799147353207E-16, 1.000000000000000000 ) ) ;
#149 = UNCERTAINTY_MEASURE_WITH_UNIT (LENGTH_MEASURE( 1.000000000000000082E-05 ), #67, 'distance_accuracy_value', 'NONE');
#150 = APPROVAL_STATUS ( 'not_yet_approved' ) ;
#151 = CARTESIAN_POINT ( 'NONE',  ( 2.672764710092195646E-48, 0.04999999999999996808, 0.0000000000000000000 ) ) ;
#152 = APPLICATION_PROTOCOL_DEFINITION ( 'international standard', 'config_control_design', 1994, #79 ) ;
#153 = CIRCLE ( 'NONE', #7, 1.499999999999995781 ) ;
#154 = ORIENTED_EDGE ( 'NONE', *, *, #141, .F. ) ;
#155 = MANIFOLD_SOLID_BREP ( 'Corps-Déplacer/Copier1[2]', #22 ) ;
#156 = MANIFOLD_SOLID_BREP ( 'Corps-Déplacer/Copier1[1]', #45 ) ;
#157 = CARTESIAN_POINT ( 'NONE',  ( -2.137915722948477716E-32, 7.498798913309282907E-34, -6.123233995736761722E-18 ) ) ;
#158 = PLANE ( 'NONE',  #119 ) ;
#159 = CALENDAR_DATE ( 2021, 25, 11 ) ;
#160 = FACE_BOUND ( 'NONE', #129, .T. ) ;
#161 = DIRECTION ( 'NONE',  ( 0.0000000000000000000, 1.000000000000000000, 0.0000000000000000000 ) ) ;
#162 = LOCAL_TIME ( 14, 47, 0.0000000000000000000, #69 ) ;
#163 = CALENDAR_DATE ( 2021, 25, 11 ) ;
#164 = EDGE_CURVE ( 'NONE', #188, #188, #169, .T. ) ;
#165 = EDGE_LOOP ( 'NONE', ( #115 ) ) ;
#166 = MECHANICAL_CONTEXT ( 'NONE', #79, 'mechanical' ) ;
#167 = CARTESIAN_POINT ( 'NONE',  ( -1.068957861474238858E-32, 3.749399456654641454E-34, -3.061616997868380861E-18 ) ) ;
#168 = PERSON_AND_ORGANIZATION ( #202, #61 ) ;
#169 = CIRCLE ( 'NONE', #138, 1.499999999999995781 ) ;
#170 = CC_DESIGN_APPROVAL ( #74, ( #85 ) ) ;
#171 = CARTESIAN_POINT ( 'NONE',  ( 0.0000000000000000000, 0.0000000000000000000, 0.0000000000000000000 ) ) ;
#172 = PERSON_AND_ORGANIZATION ( #202, #61 ) ;
#173 = CARTESIAN_POINT ( 'NONE',  ( 1.316288464743861212E-13, -4.616918432785521081E-15, 37.69999999999999574 ) ) ;
#174 = CC_DESIGN_DATE_AND_TIME_ASSIGNMENT ( #117, #195, ( #112 ) ) ;
#175 =( NAMED_UNIT ( * ) PLANE_ANGLE_UNIT ( ) SI_UNIT ( $, .RADIAN. ) );
#176 = ADVANCED_FACE ( 'NONE', ( #185 ), #158, .T. ) ;
#177 = AXIS2_PLACEMENT_3D ( 'NONE', #26, #60, #189 ) ;
#178 = APPROVAL_ROLE ( '' ) ;
#179 = ORIENTED_EDGE ( 'NONE', *, *, #109, .T. ) ;
#180 = DIRECTION ( 'NONE',  ( -4.275831445896958607E-31, -1.000000000000000000, -1.224646799147353207E-16 ) ) ;
#181 = EDGE_CURVE ( 'NONE', #121, #121, #34, .T. ) ;
#182 = LOCAL_TIME ( 14, 47, 0.0000000000000000000, #46 ) ;
#183 = EDGE_LOOP ( 'NONE', ( #8 ) ) ;
#184 = COORDINATED_UNIVERSAL_TIME_OFFSET ( 1, 0, .AHEAD. ) ;
#185 = FACE_OUTER_BOUND ( 'NONE', #165, .T. ) ;
#186 = PERSON_AND_ORGANIZATION_ROLE ( 'creator' ) ;
#187 = CIRCLE ( 'NONE', #80, 1.199999999999998623 ) ;
#188 = VERTEX_POINT ( 'NONE', #58 ) ;
#189 = DIRECTION ( 'NONE',  ( 0.0000000000000000000, -1.000000000000000000, 0.0000000000000000000 ) ) ;
#190 = FACE_OUTER_BOUND ( 'NONE', #30, .T. ) ;
#191 = CC_DESIGN_SECURITY_CLASSIFICATION ( #77, ( #85 ) ) ;
#192 = CARTESIAN_POINT ( 'NONE',  ( 0.0000000000000000000, 0.0000000000000000000, 0.0000000000000000000 ) ) ;
#193 = PERSON_AND_ORGANIZATION ( #202, #61 ) ;
#194 = ORIENTED_EDGE ( 'NONE', *, *, #181, .F. ) ;
#195 = DATE_TIME_ROLE ( 'creation_date' ) ;
#196 = EDGE_CURVE ( 'NONE', #9, #9, #153, .T. ) ;
#197 = DIRECTION ( 'NONE',  ( -3.491481338843133355E-15, 1.224646799147353207E-16, -1.000000000000000000 ) ) ;
#198 = CARTESIAN_POINT ( 'NONE',  ( 8.768763455204724681E-15, 1.124819836996389785E-32, 2.511473670974901040 ) ) ;
#199 = CARTESIAN_POINT ( 'NONE',  ( 8.768763455204724681E-15, -3.075668192302264886E-16, 2.511473670974901040 ) ) ;
#200 = APPROVAL_PERSON_ORGANIZATION ( #87, #95, #49 ) ;
#201 = ADVANCED_FACE ( 'NONE', ( #190, #75 ), #116, .T. ) ;
#202 = PERSON ( 'UNSPECIFIED', 'UNSPECIFIED', 'UNSPECIFIED', ('UNSPECIFIED'), ('UNSPECIFIED'), ('UNSPECIFIED') ) ;
#203 = APPROVAL_DATE_TIME ( #17, #95 ) ;
ENDSEC;
END-ISO-10303-21;
