ISO-10303-21;
HEADER;
FILE_DESCRIPTION (( 'STEP AP203' ),
    '1' );
FILE_NAME ('959712.step',
    '2021-11-25T13:47:00',
    ( '' ),
    ( '' ),
    'SwSTEP 2.0',
    'SolidWorks 2019',
    '' );
FILE_SCHEMA (( 'CONFIG_CONTROL_DESIGN' ));
ENDSEC;

DATA;
#1 = DIRECTION ( 'NONE',  ( 4.275831445896958607E-31, 1.000000000000000000, 1.224646799147353207E-16 ) ) ;
#2 = COORDINATED_UNIVERSAL_TIME_OFFSET ( 1, 0, .AHEAD. ) ;
#3 = APPROVAL_PERSON_ORGANIZATION ( #58, #121, #196 ) ;
#4 = VERTEX_POINT ( 'NONE', #92 ) ;
#5 = CALENDAR_DATE ( 2021, 25, 11 ) ;
#6 = DIRECTION ( 'NONE',  ( -3.491481338843133355E-15, 1.224646799147353207E-16, -1.000000000000000000 ) ) ;
#7 = COORDINATED_UNIVERSAL_TIME_OFFSET ( 1, 0, .AHEAD. ) ;
#8 = CARTESIAN_POINT ( 'NONE',  ( -8.302189036094882883E-33, 2.912015915954648319E-34, -2.377841446188490384E-18 ) ) ;
#9 = DATE_AND_TIME ( #133, #101 ) ;
#10 = PERSON_AND_ORGANIZATION ( #141, #27 ) ;
#11 = CC_DESIGN_APPROVAL ( #110, ( #187 ) ) ;
#12 = ORIENTED_EDGE ( 'NONE', *, *, #157, .F. ) ;
#13 = DIRECTION ( 'NONE',  ( 4.275831445896958607E-31, 1.000000000000000000, 1.224646799147353207E-16 ) ) ;
#14 = CIRCLE ( 'NONE', #169, 1.499999999999994227 ) ;
#15 = LOCAL_TIME ( 14, 47, 0.0000000000000000000, #96 ) ;
#16 = EDGE_LOOP ( 'NONE', ( #82 ) ) ;
#17 = LOCAL_TIME ( 14, 47, 0.0000000000000000000, #153 ) ;
#18 = CARTESIAN_POINT ( 'NONE',  ( -5.914799457447377870E-33, 0.02499999999999997710, -1.694065894508600678E-18 ) ) ;
#19 = DIRECTION ( 'NONE',  ( -3.491481338843133355E-15, 1.224646799147353207E-16, -1.000000000000000000 ) ) ;
#20 = VERTEX_POINT ( 'NONE', #18 ) ;
#21 = CC_DESIGN_PERSON_AND_ORGANIZATION_ASSIGNMENT ( #93, #51, ( #80 ) ) ;
#22 = AXIS2_PLACEMENT_3D ( 'NONE', #73, #19, #191 ) ;
#23 = APPROVAL_PERSON_ORGANIZATION ( #40, #110, #89 ) ;
#24 = DIRECTION ( 'NONE',  ( 0.0000000000000000000, 1.000000000000000000, 0.0000000000000000000 ) ) ;
#25 = PERSON_AND_ORGANIZATION ( #141, #27 ) ;
#26 = SHAPE_DEFINITION_REPRESENTATION ( #46, #102 ) ;
#27 = ORGANIZATION ( 'UNSPECIFIED', 'UNSPECIFIED', '' ) ;
#28 = ADVANCED_FACE ( 'NONE', ( #100 ), #62, .T. ) ;
#29 = EDGE_LOOP ( 'NONE', ( #99 ) ) ;
#30 = ORIENTED_EDGE ( 'NONE', *, *, #60, .F. ) ;
#31 = CC_DESIGN_PERSON_AND_ORGANIZATION_ASSIGNMENT ( #68, #105, ( #111 ) ) ;
#32 = ORIENTED_EDGE ( 'NONE', *, *, #161, .F. ) ;
#33 =( NAMED_UNIT ( * ) SI_UNIT ( $, .STERADIAN. ) SOLID_ANGLE_UNIT ( ) );
#34 = DIRECTION ( 'NONE',  ( 0.0000000000000000000, 1.000000000000000000, 0.0000000000000000000 ) ) ;
#35 = FACE_OUTER_BOUND ( 'NONE', #131, .T. ) ;
#36 = APPROVAL_DATE_TIME ( #9, #110 ) ;
#37 = CARTESIAN_POINT ( 'NONE',  ( 1.326762908760390423E-13, 1.199999999999993960, 38.00000000000000000 ) ) ;
#38 = APPROVAL_STATUS ( 'not_yet_approved' ) ;
#39 = CARTESIAN_POINT ( 'NONE',  ( 0.0000000000000000000, 0.0000000000000000000, 0.0000000000000000000 ) ) ;
#40 = PERSON_AND_ORGANIZATION ( #141, #27 ) ;
#41 = AXIS2_PLACEMENT_3D ( 'NONE', #154, #119, #71 ) ;
#42 = LOCAL_TIME ( 14, 47, 0.0000000000000000000, #127 ) ;
#43 = APPROVAL ( #38, 'UNSPECIFIED' ) ;
#44 = CARTESIAN_POINT ( 'NONE',  ( 1.326762908760390423E-13, -4.653657836759941941E-15, 38.00000000000000000 ) ) ;
#45 = SECURITY_CLASSIFICATION ( '', '', #184 ) ;
#46 = PRODUCT_DEFINITION_SHAPE ( 'NONE', 'NONE',  #187 ) ;
#47 = EDGE_LOOP ( 'NONE', ( #12 ) ) ;
#48 = AXIS2_PLACEMENT_3D ( 'NONE', #118, #6, #34 ) ;
#49 = FACE_OUTER_BOUND ( 'NONE', #29, .T. ) ;
#50 = FACE_OUTER_BOUND ( 'NONE', #47, .T. ) ;
#51 = PERSON_AND_ORGANIZATION_ROLE ( 'design_owner' ) ;
#52 = FACE_OUTER_BOUND ( 'NONE', #162, .T. ) ;
#53 = APPROVAL_DATE_TIME ( #125, #43 ) ;
#54 =( LENGTH_UNIT ( ) NAMED_UNIT ( * ) SI_UNIT ( .MILLI., .METRE. ) );
#55 = EDGE_CURVE ( 'NONE', #148, #148, #63, .T. ) ;
#56 = PERSON_AND_ORGANIZATION ( #141, #27 ) ;
#57 = AXIS2_PLACEMENT_3D ( 'NONE', #117, #194, #88 ) ;
#58 = PERSON_AND_ORGANIZATION ( #141, #27 ) ;
#59 = UNCERTAINTY_MEASURE_WITH_UNIT (LENGTH_MEASURE( 1.000000000000000082E-05 ), #54, 'distance_accuracy_value', 'NONE');
#60 = EDGE_CURVE ( 'NONE', #20, #20, #151, .T. ) ;
#61 = EDGE_LOOP ( 'NONE', ( #30 ) ) ;
#62 = PLANE ( 'NONE',  #175 ) ;
#63 = CIRCLE ( 'NONE', #66, 1.199999999999998623 ) ;
#64 = FACE_OUTER_BOUND ( 'NONE', #189, .T. ) ;
#65 = DIRECTION ( 'NONE',  ( 3.491481338843133355E-15, -1.224646799147353207E-16, 1.000000000000000000 ) ) ;
#66 = AXIS2_PLACEMENT_3D ( 'NONE', #44, #112, #172 ) ;
#67 = AXIS2_PLACEMENT_3D ( 'NONE', #126, #120, #108 ) ;
#68 = PERSON_AND_ORGANIZATION ( #141, #27 ) ;
#69 = CARTESIAN_POINT ( 'NONE',  ( 8.919949032018592009E-15, 1.499999999999994005, 2.554774941164120516 ) ) ;
#70 = PRODUCT_RELATED_PRODUCT_CATEGORY ( 'detail', '', ( #80 ) ) ;
#71 = DIRECTION ( 'NONE',  ( -4.275831445896958607E-31, -1.000000000000000000, -1.224646799147353207E-16 ) ) ;
#72 = MECHANICAL_CONTEXT ( 'NONE', #81, 'mechanical' ) ;
#73 = CARTESIAN_POINT ( 'NONE',  ( 1.316288464743861212E-13, -4.616918432785521081E-15, 37.69999999999999574 ) ) ;
#74 = APPROVAL_ROLE ( '' ) ;
#75 = CLOSED_SHELL ( 'NONE', ( #77, #170, #28 ) ) ;
#76 = ADVANCED_FACE ( 'NONE', ( #52 ), #94, .F. ) ;
#77 = ADVANCED_FACE ( 'NONE', ( #149 ), #87, .F. ) ;
#78 = MANIFOLD_SOLID_BREP ( 'Corps-Déplacer/Copier1[2]', #75 ) ;
#79 = CARTESIAN_POINT ( 'NONE',  ( -1.660437807218976577E-32, 5.824031831909296637E-34, -4.755682892376980769E-18 ) ) ;
#80 = PRODUCT ( '959712', '959712', '', ( #72 ) ) ;
#81 = APPLICATION_CONTEXT ( 'configuration controlled 3d designs of mechanical parts and assemblies' ) ;
#82 = ORIENTED_EDGE ( 'NONE', *, *, #60, .T. ) ;
#83 = MANIFOLD_SOLID_BREP ( 'Corps-Déplacer/Copier1[1]', #188 ) ;
#84 = ORIENTED_EDGE ( 'NONE', *, *, #113, .F. ) ;
#85 = APPROVAL_PERSON_ORGANIZATION ( #25, #43, #74 ) ;
#86 = CC_DESIGN_PERSON_AND_ORGANIZATION_ASSIGNMENT ( #56, #167, ( #187 ) ) ;
#87 = PLANE ( 'NONE',  #98 ) ;
#88 = DIRECTION ( 'NONE',  ( 0.0000000000000000000, -1.000000000000000000, 0.0000000000000000000 ) ) ;
#89 = APPROVAL_ROLE ( '' ) ;
#90 = DIRECTION ( 'NONE',  ( -4.275831445896958607E-31, -1.000000000000000000, -1.224646799147353207E-16 ) ) ;
#91 = PERSON_AND_ORGANIZATION ( #141, #27 ) ;
#92 = CARTESIAN_POINT ( 'NONE',  ( 8.919949032018592009E-15, 1.499999999999994005, 2.554774941164120516 ) ) ;
#93 = PERSON_AND_ORGANIZATION ( #141, #27 ) ;
#94 = PLANE ( 'NONE',  #109 ) ;
#95 = APPROVAL_STATUS ( 'not_yet_approved' ) ;
#96 = COORDINATED_UNIVERSAL_TIME_OFFSET ( 1, 0, .AHEAD. ) ;
#97 = DESIGN_CONTEXT ( 'detailed design', #106, 'design' ) ;
#98 = AXIS2_PLACEMENT_3D ( 'NONE', #8, #65, #90 ) ;
#99 = ORIENTED_EDGE ( 'NONE', *, *, #161, .T. ) ;
#100 = FACE_OUTER_BOUND ( 'NONE', #174, .T. ) ;
#101 = LOCAL_TIME ( 14, 47, 0.0000000000000000000, #7 ) ;
#102 = ADVANCED_BREP_SHAPE_REPRESENTATION ( '959712', ( #83, #78, #67 ), #146 ) ;
#103 = FACE_BOUND ( 'NONE', #61, .T. ) ;
#104 = DIRECTION ( 'NONE',  ( 4.275831445896958607E-31, 1.000000000000000000, 1.224646799147352961E-16 ) ) ;
#105 = PERSON_AND_ORGANIZATION_ROLE ( 'design_supplier' ) ;
#106 = APPLICATION_CONTEXT ( 'configuration controlled 3d designs of mechanical parts and assemblies' ) ;
#107 = DATE_TIME_ROLE ( 'classification_date' ) ;
#108 = DIRECTION ( 'NONE',  ( 1.000000000000000000, 0.0000000000000000000, 0.0000000000000000000 ) ) ;
#109 = AXIS2_PLACEMENT_3D ( 'NONE', #123, #182, #1 ) ;
#110 = APPROVAL ( #195, 'UNSPECIFIED' ) ;
#111 = PRODUCT_DEFINITION_FORMATION_WITH_SPECIFIED_SOURCE ( 'ANY', '', #80, .NOT_KNOWN. ) ;
#112 = DIRECTION ( 'NONE',  ( -3.491481338843133355E-15, 1.224646799147353207E-16, -1.000000000000000000 ) ) ;
#113 = EDGE_CURVE ( 'NONE', #4, #4, #14, .T. ) ;
#114 = ORIENTED_EDGE ( 'NONE', *, *, #157, .T. ) ;
#115 = AXIS2_PLACEMENT_3D ( 'NONE', #137, #163, #24 ) ;
#116 = ORIENTED_EDGE ( 'NONE', *, *, #55, .T. ) ;
#117 = CARTESIAN_POINT ( 'NONE',  ( 8.919949032018592009E-15, -3.128696954238507730E-16, 2.554774941164120516 ) ) ;
#118 = CARTESIAN_POINT ( 'NONE',  ( 8.919949032018592009E-15, -3.128696954238507730E-16, 2.554774941164120516 ) ) ;
#119 = DIRECTION ( 'NONE',  ( 3.491481338843133355E-15, -1.224646799147353207E-16, 1.000000000000000000 ) ) ;
#120 = DIRECTION ( 'NONE',  ( 0.0000000000000000000, 0.0000000000000000000, 1.000000000000000000 ) ) ;
#121 = APPROVAL ( #95, 'UNSPECIFIED' ) ;
#122 = DATE_TIME_ROLE ( 'creation_date' ) ;
#123 = CARTESIAN_POINT ( 'NONE',  ( 1.326762908760390423E-13, 8.998558695971067645E-33, 38.00000000000000000 ) ) ;
#124 = CONICAL_SURFACE ( 'NONE', #57, 1.499999999999994227, 0.5235987755982925984 ) ;
#125 = DATE_AND_TIME ( #5, #15 ) ;
#126 = CARTESIAN_POINT ( 'NONE',  ( 0.0000000000000000000, 0.0000000000000000000, 0.0000000000000000000 ) ) ;
#127 = COORDINATED_UNIVERSAL_TIME_OFFSET ( 1, 0, .AHEAD. ) ;
#128 = CC_DESIGN_PERSON_AND_ORGANIZATION_ASSIGNMENT ( #10, #165, ( #45 ) ) ;
#129 = CC_DESIGN_DATE_AND_TIME_ASSIGNMENT ( #140, #122, ( #187 ) ) ;
#130 = CC_DESIGN_APPROVAL ( #121, ( #45 ) ) ;
#131 = EDGE_LOOP ( 'NONE', ( #114 ) ) ;
#132 = PLANE ( 'NONE',  #41 ) ;
#133 = CALENDAR_DATE ( 2021, 25, 11 ) ;
#134 = DIRECTION ( 'NONE',  ( -3.491481338843133355E-15, 1.224646799147353207E-16, -1.000000000000000000 ) ) ;
#135 = AXIS2_PLACEMENT_3D ( 'NONE', #39, #152, #104 ) ;
#136 = APPLICATION_PROTOCOL_DEFINITION ( 'international standard', 'config_control_design', 1994, #106 ) ;
#137 = CARTESIAN_POINT ( 'NONE',  ( 1.326762908760390423E-13, -4.653657836759941941E-15, 38.00000000000000000 ) ) ;
#138 = CYLINDRICAL_SURFACE ( 'NONE', #135, 1.499999999999996447 ) ;
#139 = APPROVAL_DATE_TIME ( #155, #121 ) ;
#140 = DATE_AND_TIME ( #193, #171 ) ;
#141 = PERSON ( 'UNSPECIFIED', 'UNSPECIFIED', 'UNSPECIFIED', ('UNSPECIFIED'), ('UNSPECIFIED'), ('UNSPECIFIED') ) ;
#142 = CIRCLE ( 'NONE', #48, 1.499999999999994227 ) ;
#143 = ADVANCED_FACE ( 'NONE', ( #64 ), #132, .F. ) ;
#144 = ORIENTED_EDGE ( 'NONE', *, *, #55, .F. ) ;
#145 = ADVANCED_FACE ( 'NONE', ( #50, #179 ), #199, .T. ) ;
#146 =( GEOMETRIC_REPRESENTATION_CONTEXT ( 3 ) GLOBAL_UNCERTAINTY_ASSIGNED_CONTEXT ( ( #59 ) ) GLOBAL_UNIT_ASSIGNED_CONTEXT ( ( #54, #166, #33 ) ) REPRESENTATION_CONTEXT ( 'NONE', 'WORKASPACE' ) );
#147 = CARTESIAN_POINT ( 'NONE',  ( 8.919949032018592009E-15, 7.386380110457808436E-16, 2.554774941164120516 ) ) ;
#148 = VERTEX_POINT ( 'NONE', #37 ) ;
#149 = FACE_OUTER_BOUND ( 'NONE', #16, .T. ) ;
#150 = CC_DESIGN_PERSON_AND_ORGANIZATION_ASSIGNMENT ( #91, #181, ( #111 ) ) ;
#151 = CIRCLE ( 'NONE', #177, 0.02499999999999997710 ) ;
#152 = DIRECTION ( 'NONE',  ( -3.491481338843133355E-15, 1.224646799147353207E-16, -1.000000000000000000 ) ) ;
#153 = COORDINATED_UNIVERSAL_TIME_OFFSET ( 1, 0, .AHEAD. ) ;
#154 = CARTESIAN_POINT ( 'NONE',  ( 8.919949032018592009E-15, 7.386380110457808436E-16, 2.554774941164120516 ) ) ;
#155 = DATE_AND_TIME ( #186, #42 ) ;
#156 = CARTESIAN_POINT ( 'NONE',  ( 8.919949032018592009E-15, -3.128696954238507730E-16, 2.554774941164120516 ) ) ;
#157 = EDGE_CURVE ( 'NONE', #203, #203, #159, .T. ) ;
#158 = DIRECTION ( 'NONE',  ( -3.491481338843133355E-15, 1.224646799147353207E-16, -1.000000000000000000 ) ) ;
#159 = CIRCLE ( 'NONE', #22, 1.499999999999998446 ) ;
#160 = DIRECTION ( 'NONE',  ( 3.491481338843133355E-15, -1.224646799147353207E-16, 1.000000000000000000 ) ) ;
#161 = EDGE_CURVE ( 'NONE', #176, #176, #142, .T. ) ;
#162 = EDGE_LOOP ( 'NONE', ( #144 ) ) ;
#163 = DIRECTION ( 'NONE',  ( -3.491481338843133355E-15, 1.224646799147353207E-16, -1.000000000000000000 ) ) ;
#164 = CARTESIAN_POINT ( 'NONE',  ( 1.316288464743861212E-13, 1.499999999999994005, 37.69999999999999574 ) ) ;
#165 = PERSON_AND_ORGANIZATION_ROLE ( 'classification_officer' ) ;
#166 =( NAMED_UNIT ( * ) PLANE_ANGLE_UNIT ( ) SI_UNIT ( $, .RADIAN. ) );
#167 = PERSON_AND_ORGANIZATION_ROLE ( 'creator' ) ;
#168 = CALENDAR_DATE ( 2021, 25, 11 ) ;
#169 = AXIS2_PLACEMENT_3D ( 'NONE', #156, #134, #192 ) ;
#170 = ADVANCED_FACE ( 'NONE', ( #103, #49 ), #124, .T. ) ;
#171 = LOCAL_TIME ( 14, 47, 0.0000000000000000000, #2 ) ;
#172 = DIRECTION ( 'NONE',  ( 0.0000000000000000000, 1.000000000000000000, 0.0000000000000000000 ) ) ;
#173 = EDGE_LOOP ( 'NONE', ( #84 ) ) ;
#174 = EDGE_LOOP ( 'NONE', ( #32 ) ) ;
#175 = AXIS2_PLACEMENT_3D ( 'NONE', #147, #160, #202 ) ;
#176 = VERTEX_POINT ( 'NONE', #69 ) ;
#177 = AXIS2_PLACEMENT_3D ( 'NONE', #79, #158, #13 ) ;
#178 = CC_DESIGN_SECURITY_CLASSIFICATION ( #45, ( #111 ) ) ;
#179 = FACE_BOUND ( 'NONE', #190, .T. ) ;
#180 = FACE_OUTER_BOUND ( 'NONE', #173, .T. ) ;
#181 = PERSON_AND_ORGANIZATION_ROLE ( 'creator' ) ;
#182 = DIRECTION ( 'NONE',  ( -3.491481338843133355E-15, 1.224646799147353207E-16, -1.000000000000000000 ) ) ;
#183 = CC_DESIGN_DATE_AND_TIME_ASSIGNMENT ( #198, #107, ( #45 ) ) ;
#184 = SECURITY_CLASSIFICATION_LEVEL ( 'unclassified' ) ;
#185 = APPLICATION_PROTOCOL_DEFINITION ( 'international standard', 'config_control_design', 1994, #81 ) ;
#186 = CALENDAR_DATE ( 2021, 25, 11 ) ;
#187 = PRODUCT_DEFINITION ( 'UNKNOWN', '', #111, #97 ) ;
#188 = CLOSED_SHELL ( 'NONE', ( #143, #200, #145, #76 ) ) ;
#189 = EDGE_LOOP ( 'NONE', ( #201 ) ) ;
#190 = EDGE_LOOP ( 'NONE', ( #116 ) ) ;
#191 = DIRECTION ( 'NONE',  ( 0.0000000000000000000, 1.000000000000000000, 0.0000000000000000000 ) ) ;
#192 = DIRECTION ( 'NONE',  ( 0.0000000000000000000, 1.000000000000000000, 0.0000000000000000000 ) ) ;
#193 = CALENDAR_DATE ( 2021, 25, 11 ) ;
#194 = DIRECTION ( 'NONE',  ( 3.491481338843133355E-15, -1.224646799147353207E-16, 1.000000000000000000 ) ) ;
#195 = APPROVAL_STATUS ( 'not_yet_approved' ) ;
#196 = APPROVAL_ROLE ( '' ) ;
#197 = CC_DESIGN_APPROVAL ( #43, ( #111 ) ) ;
#198 = DATE_AND_TIME ( #168, #17 ) ;
#199 = CONICAL_SURFACE ( 'NONE', #115, 1.199999999999998623, 0.7853981633974453924 ) ;
#200 = ADVANCED_FACE ( 'NONE', ( #180, #35 ), #138, .T. ) ;
#201 = ORIENTED_EDGE ( 'NONE', *, *, #113, .T. ) ;
#202 = DIRECTION ( 'NONE',  ( -4.275831445896958607E-31, -1.000000000000000000, -1.224646799147353207E-16 ) ) ;
#203 = VERTEX_POINT ( 'NONE', #164 ) ;
ENDSEC;
END-ISO-10303-21;
