ISO-10303-21;
HEADER;
FILE_DESCRIPTION (( 'STEP AP203' ),
    '1' );
FILE_NAME ('959664.step',
    '2021-11-30T09:57:13',
    ( '' ),
    ( '' ),
    'SwSTEP 2.0',
    'SolidWorks 2019',
    '' );
FILE_SCHEMA (( 'CONFIG_CONTROL_DESIGN' ));
ENDSEC;

DATA;
#1 = PERSON_AND_ORGANIZATION ( #78, #168 ) ;
#2 = ORIENTED_EDGE ( 'NONE', *, *, #86, .F. ) ;
#3 = ADVANCED_FACE ( 'NONE', ( #170 ), #124, .F. ) ;
#4 = COORDINATED_UNIVERSAL_TIME_OFFSET ( 1, 0, .AHEAD. ) ;
#5 = ORIENTED_EDGE ( 'NONE', *, *, #277, .T. ) ;
#6 = AXIS2_PLACEMENT_3D ( 'NONE', #268, #83, #14 ) ;
#7 = LOCAL_TIME ( 10, 57, 13.00000000000000000, #257 ) ;
#8 = ORIENTED_EDGE ( 'NONE', *, *, #224, .T. ) ;
#9 = FACE_OUTER_BOUND ( 'NONE', #97, .T. ) ;
#10 = DIRECTION ( 'NONE',  ( -3.491481338843133355E-15, 1.224646799147353454E-16, -1.000000000000000000 ) ) ;
#11 = DIRECTION ( 'NONE',  ( -3.491481338843133355E-15, 1.224646799147353454E-16, -1.000000000000000000 ) ) ;
#12 = ADVANCED_FACE ( 'NONE', ( #147, #238 ), #27, .T. ) ;
#13 = DIRECTION ( 'NONE',  ( 3.491481338843133355E-15, -1.224646799147353454E-16, 1.000000000000000000 ) ) ;
#14 = DIRECTION ( 'NONE',  ( 4.275831445896959482E-31, 1.000000000000000000, 1.224646799147353454E-16 ) ) ;
#15 = CARTESIAN_POINT ( 'NONE',  ( 8.849961221477469775E-14, 1.305384493975575877, 25.34729635533384595 ) ) ;
#16 = PRODUCT_RELATED_PRODUCT_CATEGORY ( 'detail', '', ( #181 ) ) ;
#17 = CLOSED_SHELL ( 'NONE', ( #75, #144, #12, #245 ) ) ;
#18 = LOCAL_TIME ( 10, 57, 13.00000000000000000, #4 ) ;
#19 =( NAMED_UNIT ( * ) SI_UNIT ( $, .STERADIAN. ) SOLID_ANGLE_UNIT ( ) );
#20 = FACE_OUTER_BOUND ( 'NONE', #284, .T. ) ;
#21 = DESIGN_CONTEXT ( 'detailed design', #130, 'design' ) ;
#22 = DIRECTION ( 'NONE',  ( -3.491481338843133355E-15, 1.224646799147353454E-16, -1.000000000000000000 ) ) ;
#23 = AXIS2_PLACEMENT_3D ( 'NONE', #246, #10, #292 ) ;
#24 = EDGE_CURVE ( 'NONE', #137, #137, #142, .T. ) ;
#25 = DIRECTION ( 'NONE',  ( 0.0000000000000000000, 1.000000000000000000, 0.0000000000000000000 ) ) ;
#26 = APPROVAL_ROLE ( '' ) ;
#27 = CYLINDRICAL_SURFACE ( 'NONE', #244, 1.488499999999999268 ) ;
#28 = AXIS2_PLACEMENT_3D ( 'NONE', #251, #279, #91 ) ;
#29 = DATE_AND_TIME ( #197, #227 ) ;
#30 = CALENDAR_DATE ( 2021, 30, 11 ) ;
#31 = EDGE_LOOP ( 'NONE', ( #196 ) ) ;
#32 = EDGE_LOOP ( 'NONE', ( #8 ) ) ;
#33 = EDGE_CURVE ( 'NONE', #296, #296, #119, .T. ) ;
#34 = AXIS2_PLACEMENT_3D ( 'NONE', #129, #182, #61 ) ;
#35 = FACE_BOUND ( 'NONE', #198, .T. ) ;
#36 = DIRECTION ( 'NONE',  ( -3.491481338843133355E-15, 1.224646799147353454E-16, -1.000000000000000000 ) ) ;
#37 = FACE_OUTER_BOUND ( 'NONE', #154, .T. ) ;
#38 = CONICAL_SURFACE ( 'NONE', #150, 1.200000000000001510, 0.7853981633974453924 ) ;
#39 = DIRECTION ( 'NONE',  ( -4.275831445896959482E-31, -1.000000000000000000, -1.224646799147353454E-16 ) ) ;
#40 = CARTESIAN_POINT ( 'NONE',  ( 9.235322783731660292E-14, -3.239315175585918972E-15, 26.45101573646585891 ) ) ;
#41 = DIRECTION ( 'NONE',  ( -3.491481338843133355E-15, 1.224646799147353454E-16, -1.000000000000000000 ) ) ;
#42 = CARTESIAN_POINT ( 'NONE',  ( 8.728703347107833388E-16, 1.488499999999998824, 0.2500000000000000000 ) ) ;
#43 = VERTEX_POINT ( 'NONE', #255 ) ;
#44 = AXIS2_PLACEMENT_3D ( 'NONE', #228, #293, #56 ) ;
#45 = AXIS2_PLACEMENT_3D ( 'NONE', #40, #13, #161 ) ;
#46 = PERSON_AND_ORGANIZATION ( #78, #168 ) ;
#47 = EDGE_LOOP ( 'NONE', ( #243 ) ) ;
#48 = COORDINATED_UNIVERSAL_TIME_OFFSET ( 1, 0, .AHEAD. ) ;
#49 = AXIS2_PLACEMENT_3D ( 'NONE', #225, #247, #203 ) ;
#50 = AXIS2_PLACEMENT_3D ( 'NONE', #185, #207, #297 ) ;
#51 = CIRCLE ( 'NONE', #206, 1.488499999999999934 ) ;
#52 = PERSON_AND_ORGANIZATION ( #78, #168 ) ;
#53 = ORIENTED_EDGE ( 'NONE', *, *, #267, .F. ) ;
#54 = EDGE_LOOP ( 'NONE', ( #288 ) ) ;
#55 = AXIS2_PLACEMENT_3D ( 'NONE', #295, #131, #180 ) ;
#56 = DIRECTION ( 'NONE',  ( 3.881618967525503440E-31, 1.000000000000000000, 1.092578608483881669E-16 ) ) ;
#57 = MANIFOLD_SOLID_BREP ( 'Corps-Déplacer/Copier1[2]', #17 ) ;
#58 = CC_DESIGN_PERSON_AND_ORGANIZATION_ASSIGNMENT ( #173, #264, ( #90 ) ) ;
#59 = CARTESIAN_POINT ( 'NONE',  ( 9.235322783731660292E-14, -3.239315175585918972E-15, 26.45101573646585891 ) ) ;
#60 = FACE_OUTER_BOUND ( 'NONE', #72, .T. ) ;
#61 = DIRECTION ( 'NONE',  ( 0.0000000000000000000, 1.000000000000000000, 0.0000000000000000000 ) ) ;
#62 = CARTESIAN_POINT ( 'NONE',  ( 0.0000000000000000000, 0.0000000000000000000, 0.0000000000000000000 ) ) ;
#63 = ADVANCED_FACE ( 'NONE', ( #271, #229 ), #283, .T. ) ;
#64 = APPLICATION_PROTOCOL_DEFINITION ( 'international standard', 'config_control_design', 1994, #99 ) ;
#65 = DIRECTION ( 'NONE',  ( -3.491481338843133355E-15, 1.224646799147353454E-16, -1.000000000000000000 ) ) ;
#66 = CIRCLE ( 'NONE', #160, 1.488499999999999934 ) ;
#67 = FACE_OUTER_BOUND ( 'NONE', #32, .T. ) ;
#68 = CC_DESIGN_DATE_AND_TIME_ASSIGNMENT ( #287, #236, ( #90 ) ) ;
#69 = CC_DESIGN_APPROVAL ( #230, ( #235 ) ) ;
#70 = MECHANICAL_CONTEXT ( 'NONE', #99, 'mechanical' ) ;
#71 = ORIENTED_EDGE ( 'NONE', *, *, #115, .T. ) ;
#72 = EDGE_LOOP ( 'NONE', ( #213 ) ) ;
#73 = APPROVAL_STATUS ( 'not_yet_approved' ) ;
#74 = APPROVAL_DATE_TIME ( #29, #230 ) ;
#75 = ADVANCED_FACE ( 'NONE', ( #106 ), #136, .F. ) ;
#76 = ORIENTED_EDGE ( 'NONE', *, *, #254, .T. ) ;
#77 = ORIENTED_EDGE ( 'NONE', *, *, #254, .F. ) ;
#78 = PERSON ( 'UNSPECIFIED', 'UNSPECIFIED', 'UNSPECIFIED', ('UNSPECIFIED'), ('UNSPECIFIED'), ('UNSPECIFIED') ) ;
#79 = DIRECTION ( 'NONE',  ( 4.275831445896959482E-31, 1.000000000000000000, 1.224646799147353700E-16 ) ) ;
#80 = CC_DESIGN_PERSON_AND_ORGANIZATION_ASSIGNMENT ( #1, #125, ( #181 ) ) ;
#81 = AXIS2_PLACEMENT_3D ( 'NONE', #110, #208, #186 ) ;
#82 = DIRECTION ( 'NONE',  ( 0.0000000000000000000, 1.000000000000000000, 0.0000000000000000000 ) ) ;
#83 = DIRECTION ( 'NONE',  ( -3.491481338843133355E-15, 1.224646799147353454E-16, -1.000000000000000000 ) ) ;
#84 = FACE_BOUND ( 'NONE', #216, .T. ) ;
#85 = CARTESIAN_POINT ( 'NONE',  ( 3.620593821442183863E-14, -1.269933361840908188E-15, 10.36979284741596530 ) ) ;
#86 = EDGE_CURVE ( 'NONE', #165, #165, #103, .T. ) ;
#87 = UNCERTAINTY_MEASURE_WITH_UNIT (LENGTH_MEASURE( 1.000000000000000082E-05 ), #280, 'distance_accuracy_value', 'NONE');
#88 = CARTESIAN_POINT ( 'NONE',  ( 3.491481338843133355E-14, -1.224646799147353454E-15, 10.00000000000000000 ) ) ;
#89 = DIRECTION ( 'NONE',  ( 0.0000000000000000000, 1.000000000000000000, 0.0000000000000000000 ) ) ;
#90 = SECURITY_CLASSIFICATION ( '', '', #237 ) ;
#91 = DIRECTION ( 'NONE',  ( -4.275831445896959482E-31, -1.000000000000000000, -1.224646799147353454E-16 ) ) ;
#92 = ADVANCED_FACE ( 'NONE', ( #184, #84 ), #38, .T. ) ;
#93 = EDGE_LOOP ( 'NONE', ( #5 ) ) ;
#94 = CALENDAR_DATE ( 2021, 30, 11 ) ;
#95 = EDGE_LOOP ( 'NONE', ( #71 ) ) ;
#96 = APPROVAL_ROLE ( '' ) ;
#97 = EDGE_LOOP ( 'NONE', ( #2 ) ) ;
#98 = PERSON_AND_ORGANIZATION ( #78, #168 ) ;
#99 = APPLICATION_CONTEXT ( 'configuration controlled 3d designs of mechanical parts and assemblies' ) ;
#100 = APPLICATION_PROTOCOL_DEFINITION ( 'international standard', 'config_control_design', 1994, #130 ) ;
#101 = FACE_OUTER_BOUND ( 'NONE', #290, .T. ) ;
#102 = ADVANCED_FACE ( 'NONE', ( #222 ), #248, .F. ) ;
#103 = CIRCLE ( 'NONE', #156, 1.499999999999996003 ) ;
#104 = CC_DESIGN_APPROVAL ( #167, ( #90 ) ) ;
#105 = DIRECTION ( 'NONE',  ( -3.491481338843133355E-15, 1.224646799147353454E-16, -1.000000000000000000 ) ) ;
#106 = FACE_OUTER_BOUND ( 'NONE', #152, .T. ) ;
#107 = PRODUCT_DEFINITION_SHAPE ( 'NONE', 'NONE',  #235 ) ;
#108 = DIRECTION ( 'NONE',  ( -3.491481338843133355E-15, 1.224646799147353454E-16, -1.000000000000000000 ) ) ;
#109 = CC_DESIGN_APPROVAL ( #202, ( #289 ) ) ;
#110 = CARTESIAN_POINT ( 'NONE',  ( 8.849961221477469775E-14, -3.104148534859897544E-15, 25.34729635533384595 ) ) ;
#111 = CARTESIAN_POINT ( 'NONE',  ( 2.119329172677781757E-13, 1.499999999999994005, 60.69999999999999574 ) ) ;
#112 = CLOSED_SHELL ( 'NONE', ( #3, #63, #149, #282, #155, #192, #92, #102 ) ) ;
#113 = VERTEX_POINT ( 'NONE', #232 ) ;
#114 = CALENDAR_DATE ( 2021, 30, 11 ) ;
#115 = EDGE_CURVE ( 'NONE', #189, #189, #183, .T. ) ;
#116 = EDGE_LOOP ( 'NONE', ( #303 ) ) ;
#117 = COORDINATED_UNIVERSAL_TIME_OFFSET ( 1, 0, .AHEAD. ) ;
#118 = CARTESIAN_POINT ( 'NONE',  ( 0.0000000000000000000, 0.0000000000000000000, 0.0000000000000000000 ) ) ;
#119 = CIRCLE ( 'NONE', #55, 1.500000000000001332 ) ;
#120 = APPROVAL_PERSON_ORGANIZATION ( #52, #230, #195 ) ;
#121 = DATE_AND_TIME ( #175, #274 ) ;
#122 = EDGE_LOOP ( 'NONE', ( #242 ) ) ;
#123 = SHAPE_DEFINITION_REPRESENTATION ( #107, #145 ) ;
#124 = PLANE ( 'NONE',  #273 ) ;
#125 = PERSON_AND_ORGANIZATION_ROLE ( 'design_owner' ) ;
#126 = ORIENTED_EDGE ( 'NONE', *, *, #33, .T. ) ;
#127 = CC_DESIGN_DATE_AND_TIME_ASSIGNMENT ( #199, #239, ( #235 ) ) ;
#128 = FACE_OUTER_BOUND ( 'NONE', #54, .T. ) ;
#129 = CARTESIAN_POINT ( 'NONE',  ( 3.620593821442183863E-14, -1.269933361840908188E-15, 10.36979284741596530 ) ) ;
#130 = APPLICATION_CONTEXT ( 'configuration controlled 3d designs of mechanical parts and assemblies' ) ;
#131 = DIRECTION ( 'NONE',  ( -3.491481338843133355E-15, 1.224646799147353454E-16, -1.000000000000000000 ) ) ;
#132 = CIRCLE ( 'NONE', #34, 1.274999999999998135 ) ;
#133 = LOCAL_TIME ( 10, 57, 13.00000000000000000, #259 ) ;
#134 = FACE_BOUND ( 'NONE', #220, .T. ) ;
#135 = EDGE_CURVE ( 'NONE', #300, #300, #212, .T. ) ;
#136 = PLANE ( 'NONE',  #252 ) ;
#137 = VERTEX_POINT ( 'NONE', #231 ) ;
#138 = CARTESIAN_POINT ( 'NONE',  ( -3.785471652766322713E-31, 1.344162432702594057, -1.084202172485504187E-16 ) ) ;
#139 = VERTEX_POINT ( 'NONE', #234 ) ;
#140 = FACE_OUTER_BOUND ( 'NONE', #211, .T. ) ;
#141 = CARTESIAN_POINT ( 'NONE',  ( 3.491481338843133355E-14, 1.488499999999998824, 10.00000000000000000 ) ) ;
#142 = CIRCLE ( 'NONE', #240, 1.200000000000001510 ) ;
#143 = CIRCLE ( 'NONE', #190, 1.274999999999999689 ) ;
#144 = ADVANCED_FACE ( 'NONE', ( #35, #158 ), #187, .T. ) ;
#145 = ADVANCED_BREP_SHAPE_REPRESENTATION ( '959664', ( #166, #57, #50 ), #214 ) ;
#146 = APPROVAL_DATE_TIME ( #121, #202 ) ;
#147 = FACE_OUTER_BOUND ( 'NONE', #263, .T. ) ;
#148 = PERSON_AND_ORGANIZATION_ROLE ( 'design_supplier' ) ;
#149 = ADVANCED_FACE ( 'NONE', ( #60, #37 ), #157, .T. ) ;
#150 = AXIS2_PLACEMENT_3D ( 'NONE', #275, #249, #82 ) ;
#151 = TOROIDAL_SURFACE ( 'NONE', #278, 3.274999999999999911, 2.000000000000000888 ) ;
#152 = EDGE_LOOP ( 'NONE', ( #286 ) ) ;
#153 = APPROVAL_DATE_TIME ( #261, #167 ) ;
#154 = EDGE_LOOP ( 'NONE', ( #76 ) ) ;
#155 = ADVANCED_FACE ( 'NONE', ( #134, #128 ), #299, .T. ) ;
#156 = AXIS2_PLACEMENT_3D ( 'NONE', #59, #205, #159 ) ;
#157 = CYLINDRICAL_SURFACE ( 'NONE', #260, 1.274999999999998801 ) ;
#158 = FACE_OUTER_BOUND ( 'NONE', #95, .T. ) ;
#159 = DIRECTION ( 'NONE',  ( 0.0000000000000000000, 1.000000000000000000, 0.0000000000000000000 ) ) ;
#160 = AXIS2_PLACEMENT_3D ( 'NONE', #88, #41, #25 ) ;
#161 = DIRECTION ( 'NONE',  ( 0.0000000000000000000, -1.000000000000000000, 0.0000000000000000000 ) ) ;
#162 = DIRECTION ( 'NONE',  ( 4.275831445896959482E-31, 1.000000000000000000, 1.224646799147353454E-16 ) ) ;
#163 = PLANE ( 'NONE',  #28 ) ;
#164 = DIRECTION ( 'NONE',  ( 0.0000000000000000000, 1.000000000000000000, 0.0000000000000000000 ) ) ;
#165 = VERTEX_POINT ( 'NONE', #210 ) ;
#166 = MANIFOLD_SOLID_BREP ( 'Corps-Déplacer/Copier1[1]', #112 ) ;
#167 = APPROVAL ( #73, 'UNSPECIFIED' ) ;
#168 = ORGANIZATION ( 'UNSPECIFIED', 'UNSPECIFIED', '' ) ;
#169 = PERSON_AND_ORGANIZATION ( #78, #168 ) ;
#170 = FACE_OUTER_BOUND ( 'NONE', #93, .T. ) ;
#171 = APPROVAL_STATUS ( 'not_yet_approved' ) ;
#172 = ORIENTED_EDGE ( 'NONE', *, *, #115, .F. ) ;
#173 = PERSON_AND_ORGANIZATION ( #78, #168 ) ;
#174 = ORIENTED_EDGE ( 'NONE', *, *, #33, .F. ) ;
#175 = CALENDAR_DATE ( 2021, 30, 11 ) ;
#176 = DIRECTION ( 'NONE',  ( 3.491481338843133355E-15, -1.224646799147353454E-16, 1.000000000000000000 ) ) ;
#177 = ORIENTED_EDGE ( 'NONE', *, *, #24, .T. ) ;
#178 = EDGE_CURVE ( 'NONE', #43, #43, #132, .T. ) ;
#179 = CARTESIAN_POINT ( 'NONE',  ( -4.766441825454714623E-31, 1.671842739047628421E-32, -1.365163196614427850E-16 ) ) ;
#180 = DIRECTION ( 'NONE',  ( 0.0000000000000000000, 1.000000000000000000, 0.0000000000000000000 ) ) ;
#181 = PRODUCT ( '959664', '959664', '', ( #70 ) ) ;
#182 = DIRECTION ( 'NONE',  ( -3.491481338843133355E-15, 1.224646799147353454E-16, -1.000000000000000000 ) ) ;
#183 = CIRCLE ( 'NONE', #44, 1.488499999999998824 ) ;
#184 = FACE_OUTER_BOUND ( 'NONE', #258, .T. ) ;
#185 = CARTESIAN_POINT ( 'NONE',  ( 0.0000000000000000000, 0.0000000000000000000, 0.0000000000000000000 ) ) ;
#186 = DIRECTION ( 'NONE',  ( 0.0000000000000000000, 1.000000000000000000, 0.0000000000000000000 ) ) ;
#187 = CONICAL_SURFACE ( 'NONE', #49, 1.488499999999998824, 0.5235987755982931535 ) ;
#188 = CIRCLE ( 'NONE', #81, 1.305384493975578986 ) ;
#189 = VERTEX_POINT ( 'NONE', #42 ) ;
#190 = AXIS2_PLACEMENT_3D ( 'NONE', #298, #22, #89 ) ;
#191 = VERTEX_POINT ( 'NONE', #141 ) ;
#192 = ADVANCED_FACE ( 'NONE', ( #9, #101 ), #200, .T. ) ;
#193 = PERSON_AND_ORGANIZATION_ROLE ( 'creator' ) ;
#194 = ORIENTED_EDGE ( 'NONE', *, *, #135, .F. ) ;
#195 = APPROVAL_ROLE ( '' ) ;
#196 = ORIENTED_EDGE ( 'NONE', *, *, #267, .T. ) ;
#197 = CALENDAR_DATE ( 2021, 30, 11 ) ;
#198 = EDGE_LOOP ( 'NONE', ( #194 ) ) ;
#199 = DATE_AND_TIME ( #94, #133 ) ;
#200 = CYLINDRICAL_SURFACE ( 'NONE', #23, 1.499999999999998668 ) ;
#201 = CARTESIAN_POINT ( 'NONE',  ( 2.129803616694311221E-13, -7.470345474798856659E-15, 61.00000000000000000 ) ) ;
#202 = APPROVAL ( #171, 'UNSPECIFIED' ) ;
#203 = DIRECTION ( 'NONE',  ( -3.881618967525503440E-31, -1.000000000000000000, -1.092578608483881669E-16 ) ) ;
#204 = CARTESIAN_POINT ( 'NONE',  ( -9.532883650909429245E-31, 3.343685478095256843E-32, -2.730326393228855701E-16 ) ) ;
#205 = DIRECTION ( 'NONE',  ( -3.491481338843133355E-15, 1.224646799147353454E-16, -1.000000000000000000 ) ) ;
#206 = AXIS2_PLACEMENT_3D ( 'NONE', #253, #256, #164 ) ;
#207 = DIRECTION ( 'NONE',  ( 0.0000000000000000000, 0.0000000000000000000, 1.000000000000000000 ) ) ;
#208 = DIRECTION ( 'NONE',  ( -3.491481338843133355E-15, 1.224646799147353454E-16, -1.000000000000000000 ) ) ;
#209 = AXIS2_PLACEMENT_3D ( 'NONE', #204, #108, #294 ) ;
#210 = CARTESIAN_POINT ( 'NONE',  ( 9.235322783731660292E-14, 1.499999999999992673, 26.45101573646585891 ) ) ;
#211 = EDGE_LOOP ( 'NONE', ( #77 ) ) ;
#212 = CIRCLE ( 'NONE', #209, 1.344162432702594057 ) ;
#213 = ORIENTED_EDGE ( 'NONE', *, *, #178, .F. ) ;
#214 =( GEOMETRIC_REPRESENTATION_CONTEXT ( 3 ) GLOBAL_UNCERTAINTY_ASSIGNED_CONTEXT ( ( #87 ) ) GLOBAL_UNIT_ASSIGNED_CONTEXT ( ( #280, #301, #19 ) ) REPRESENTATION_CONTEXT ( 'NONE', 'WORKASPACE' ) );
#215 = PERSON_AND_ORGANIZATION ( #78, #168 ) ;
#216 = EDGE_LOOP ( 'NONE', ( #177 ) ) ;
#217 = PERSON_AND_ORGANIZATION_ROLE ( 'creator' ) ;
#218 = CARTESIAN_POINT ( 'NONE',  ( 3.491481338843133355E-14, 1.116196218246086038E-32, 10.00000000000000000 ) ) ;
#219 = APPROVAL_STATUS ( 'not_yet_approved' ) ;
#220 = EDGE_LOOP ( 'NONE', ( #266 ) ) ;
#221 = APPROVAL_PERSON_ORGANIZATION ( #285, #202, #96 ) ;
#222 = FACE_OUTER_BOUND ( 'NONE', #116, .T. ) ;
#223 = DIRECTION ( 'NONE',  ( 3.491481338843133355E-15, -1.224646799147353454E-16, 1.000000000000000000 ) ) ;
#224 = EDGE_CURVE ( 'NONE', #276, #276, #188, .T. ) ;
#225 = CARTESIAN_POINT ( 'NONE',  ( 8.728703347107827472E-16, -3.061616997868381785E-17, 0.2499999999999998335 ) ) ;
#226 = AXIS2_PLACEMENT_3D ( 'NONE', #85, #36, #272 ) ;
#227 = LOCAL_TIME ( 10, 57, 13.00000000000000000, #117 ) ;
#228 = CARTESIAN_POINT ( 'NONE',  ( 8.728703347107827472E-16, -3.061616997868381785E-17, 0.2499999999999998335 ) ) ;
#229 = FACE_BOUND ( 'NONE', #122, .T. ) ;
#230 = APPROVAL ( #219, 'UNSPECIFIED' ) ;
#231 = CARTESIAN_POINT ( 'NONE',  ( 2.129803616694311221E-13, 1.199999999999993960, 61.00000000000000000 ) ) ;
#232 = CARTESIAN_POINT ( 'NONE',  ( 3.491481338843133355E-14, 1.488499999999998824, 10.00000000000000000 ) ) ;
#233 = CARTESIAN_POINT ( 'NONE',  ( 8.728703347107833388E-14, -3.035766082959412415E-15, 25.00000000000000000 ) ) ;
#234 = CARTESIAN_POINT ( 'NONE',  ( 8.728703347107833388E-14, 1.274999999999996581, 25.00000000000000000 ) ) ;
#235 = PRODUCT_DEFINITION ( 'UNKNOWN', '', #289, #21 ) ;
#236 = DATE_TIME_ROLE ( 'classification_date' ) ;
#237 = SECURITY_CLASSIFICATION_LEVEL ( 'unclassified' ) ;
#238 = FACE_OUTER_BOUND ( 'NONE', #31, .T. ) ;
#239 = DATE_TIME_ROLE ( 'creation_date' ) ;
#240 = AXIS2_PLACEMENT_3D ( 'NONE', #201, #105, #270 ) ;
#241 = APPROVAL_PERSON_ORGANIZATION ( #98, #167, #26 ) ;
#242 = ORIENTED_EDGE ( 'NONE', *, *, #178, .T. ) ;
#243 = ORIENTED_EDGE ( 'NONE', *, *, #277, .F. ) ;
#244 = AXIS2_PLACEMENT_3D ( 'NONE', #118, #291, #79 ) ;
#245 = ADVANCED_FACE ( 'NONE', ( #20 ), #163, .T. ) ;
#246 = CARTESIAN_POINT ( 'NONE',  ( 0.0000000000000000000, 0.0000000000000000000, 0.0000000000000000000 ) ) ;
#247 = DIRECTION ( 'NONE',  ( 3.491481338843133355E-15, -1.224646799147353454E-16, 1.000000000000000000 ) ) ;
#248 = PLANE ( 'NONE',  #6 ) ;
#249 = DIRECTION ( 'NONE',  ( -3.491481338843133355E-15, 1.224646799147353454E-16, -1.000000000000000000 ) ) ;
#250 = CC_DESIGN_PERSON_AND_ORGANIZATION_ASSIGNMENT ( #215, #148, ( #289 ) ) ;
#251 = CARTESIAN_POINT ( 'NONE',  ( 3.491481338843133355E-14, 1.116196218246086038E-32, 10.00000000000000000 ) ) ;
#252 = AXIS2_PLACEMENT_3D ( 'NONE', #179, #223, #39 ) ;
#253 = CARTESIAN_POINT ( 'NONE',  ( 3.491481338843133355E-14, -1.224646799147353454E-15, 10.00000000000000000 ) ) ;
#254 = EDGE_CURVE ( 'NONE', #139, #139, #143, .T. ) ;
#255 = CARTESIAN_POINT ( 'NONE',  ( 3.620593821442183863E-14, 1.274999999999996803, 10.36979284741596530 ) ) ;
#256 = DIRECTION ( 'NONE',  ( -3.491481338843133355E-15, 1.224646799147353454E-16, -1.000000000000000000 ) ) ;
#257 = COORDINATED_UNIVERSAL_TIME_OFFSET ( 1, 0, .AHEAD. ) ;
#258 = EDGE_LOOP ( 'NONE', ( #174 ) ) ;
#259 = COORDINATED_UNIVERSAL_TIME_OFFSET ( 1, 0, .AHEAD. ) ;
#260 = AXIS2_PLACEMENT_3D ( 'NONE', #62, #11, #162 ) ;
#261 = DATE_AND_TIME ( #114, #7 ) ;
#262 = CC_DESIGN_PERSON_AND_ORGANIZATION_ASSIGNMENT ( #169, #217, ( #289 ) ) ;
#263 = EDGE_LOOP ( 'NONE', ( #172 ) ) ;
#264 = PERSON_AND_ORGANIZATION_ROLE ( 'classification_officer' ) ;
#265 = DIRECTION ( 'NONE',  ( -4.275831445896959482E-31, -1.000000000000000000, -1.224646799147353454E-16 ) ) ;
#266 = ORIENTED_EDGE ( 'NONE', *, *, #224, .F. ) ;
#267 = EDGE_CURVE ( 'NONE', #113, #113, #51, .T. ) ;
#268 = CARTESIAN_POINT ( 'NONE',  ( 2.129803616694311221E-13, 8.998558695971049855E-33, 61.00000000000000000 ) ) ;
#269 = CC_DESIGN_SECURITY_CLASSIFICATION ( #90, ( #289 ) ) ;
#270 = DIRECTION ( 'NONE',  ( 0.0000000000000000000, 1.000000000000000000, 0.0000000000000000000 ) ) ;
#271 = FACE_OUTER_BOUND ( 'NONE', #47, .T. ) ;
#272 = DIRECTION ( 'NONE',  ( 0.0000000000000000000, 1.000000000000000000, 0.0000000000000000000 ) ) ;
#273 = AXIS2_PLACEMENT_3D ( 'NONE', #218, #176, #265 ) ;
#274 = LOCAL_TIME ( 10, 57, 13.00000000000000000, #48 ) ;
#275 = CARTESIAN_POINT ( 'NONE',  ( 2.129803616694311221E-13, -7.470345474798856659E-15, 61.00000000000000000 ) ) ;
#276 = VERTEX_POINT ( 'NONE', #15 ) ;
#277 = EDGE_CURVE ( 'NONE', #191, #191, #66, .T. ) ;
#278 = AXIS2_PLACEMENT_3D ( 'NONE', #233, #65, #281 ) ;
#279 = DIRECTION ( 'NONE',  ( 3.491481338843133355E-15, -1.224646799147353454E-16, 1.000000000000000000 ) ) ;
#280 =( LENGTH_UNIT ( ) NAMED_UNIT ( * ) SI_UNIT ( .MILLI., .METRE. ) );
#281 = DIRECTION ( 'NONE',  ( 4.275831445896959482E-31, 1.000000000000000000, 1.224646799147353454E-16 ) ) ;
#282 = ADVANCED_FACE ( 'NONE', ( #140, #67 ), #151, .F. ) ;
#283 = CONICAL_SURFACE ( 'NONE', #226, 1.274999999999998135, 0.5235987755982919323 ) ;
#284 = EDGE_LOOP ( 'NONE', ( #53 ) ) ;
#285 = PERSON_AND_ORGANIZATION ( #78, #168 ) ;
#286 = ORIENTED_EDGE ( 'NONE', *, *, #135, .T. ) ;
#287 = DATE_AND_TIME ( #30, #18 ) ;
#288 = ORIENTED_EDGE ( 'NONE', *, *, #86, .T. ) ;
#289 = PRODUCT_DEFINITION_FORMATION_WITH_SPECIFIED_SOURCE ( 'ANY', '', #181, .NOT_KNOWN. ) ;
#290 = EDGE_LOOP ( 'NONE', ( #126 ) ) ;
#291 = DIRECTION ( 'NONE',  ( -3.491481338843133355E-15, 1.224646799147353454E-16, -1.000000000000000000 ) ) ;
#292 = DIRECTION ( 'NONE',  ( 4.275831445896960358E-31, 1.000000000000000000, 1.224646799147353454E-16 ) ) ;
#293 = DIRECTION ( 'NONE',  ( -3.491481338843133355E-15, 1.224646799147353454E-16, -1.000000000000000000 ) ) ;
#294 = DIRECTION ( 'NONE',  ( 4.275831445896959482E-31, 1.000000000000000000, 1.224646799147353454E-16 ) ) ;
#295 = CARTESIAN_POINT ( 'NONE',  ( 2.119329172677781757E-13, -7.433606070824434221E-15, 60.69999999999999574 ) ) ;
#296 = VERTEX_POINT ( 'NONE', #111 ) ;
#297 = DIRECTION ( 'NONE',  ( 1.000000000000000000, 0.0000000000000000000, 0.0000000000000000000 ) ) ;
#298 = CARTESIAN_POINT ( 'NONE',  ( 8.728703347107833388E-14, -3.061616997868383831E-15, 25.00000000000000000 ) ) ;
#299 = CONICAL_SURFACE ( 'NONE', #45, 1.499999999999996003, 0.1745329251994277020 ) ;
#300 = VERTEX_POINT ( 'NONE', #138 ) ;
#301 =( NAMED_UNIT ( * ) PLANE_ANGLE_UNIT ( ) SI_UNIT ( $, .RADIAN. ) );
#302 = CC_DESIGN_PERSON_AND_ORGANIZATION_ASSIGNMENT ( #46, #193, ( #235 ) ) ;
#303 = ORIENTED_EDGE ( 'NONE', *, *, #24, .F. ) ;
ENDSEC;
END-ISO-10303-21;
