ISO-10303-21;
HEADER;
FILE_DESCRIPTION (( 'STEP AP203' ),
    '1' );
FILE_NAME ('959662.step',
    '2021-11-26T14:47:27',
    ( '' ),
    ( '' ),
    'SwSTEP 2.0',
    'SolidWorks 2019',
    '' );
FILE_SCHEMA (( 'CONFIG_CONTROL_DESIGN' ));
ENDSEC;

DATA;
#1 = ADVANCED_FACE ( 'NONE', ( #108, #33 ), #155, .F. ) ;
#2 = ORIENTED_EDGE ( 'NONE', *, *, #258, .T. ) ;
#3 = EDGE_LOOP ( 'NONE', ( #53 ) ) ;
#4 = APPROVAL_DATE_TIME ( #122, #36 ) ;
#5 = CONICAL_SURFACE ( 'NONE', #145, 1.200000000000003286, 0.7853981633974453924 ) ;
#6 = ADVANCED_FACE ( 'NONE', ( #168 ), #130, .T. ) ;
#7 = DIRECTION ( 'NONE',  ( -3.491481338843133355E-15, 1.224646799147352961E-16, -1.000000000000000000 ) ) ;
#8 = ORIENTED_EDGE ( 'NONE', *, *, #21, .F. ) ;
#9 = PRODUCT_RELATED_PRODUCT_CATEGORY ( 'detail', '', ( #52 ) ) ;
#10 = FACE_OUTER_BOUND ( 'NONE', #244, .T. ) ;
#11 = FACE_BOUND ( 'NONE', #88, .T. ) ;
#12 = EDGE_LOOP ( 'NONE', ( #205 ) ) ;
#13 = DIRECTION ( 'NONE',  ( 0.0000000000000000000, 1.000000000000000000, 0.0000000000000000000 ) ) ;
#14 = CIRCLE ( 'NONE', #161, 0.2534999999999995590 ) ;
#15 = PLANE ( 'NONE',  #193 ) ;
#16 = DIRECTION ( 'NONE',  ( -3.491481338843133355E-15, 1.224646799147352961E-16, -1.000000000000000000 ) ) ;
#17 = MANIFOLD_SOLID_BREP ( 'Corps-Déplacer/Copier1[1]', #278 ) ;
#18 = VERTEX_POINT ( 'NONE', #271 ) ;
#19 = MANIFOLD_SOLID_BREP ( 'Corps-Déplacer/Copier1[2]', #264 ) ;
#20 = DATE_TIME_ROLE ( 'creation_date' ) ;
#21 = EDGE_CURVE ( 'NONE', #40, #40, #177, .T. ) ;
#22 = PERSON_AND_ORGANIZATION_ROLE ( 'design_owner' ) ;
#23 = CONICAL_SURFACE ( 'NONE', #64, 1.499999999999996891, 0.1745329251994260922 ) ;
#24 = VERTEX_POINT ( 'NONE', #281 ) ;
#25 = DIRECTION ( 'NONE',  ( 0.0000000000000000000, 0.0000000000000000000, 1.000000000000000000 ) ) ;
#26 = ORIENTED_EDGE ( 'NONE', *, *, #32, .T. ) ;
#27 = ORIENTED_EDGE ( 'NONE', *, *, #143, .T. ) ;
#28 = COORDINATED_UNIVERSAL_TIME_OFFSET ( 1, 0, .AHEAD. ) ;
#29 = ADVANCED_FACE ( 'NONE', ( #189 ), #58, .F. ) ;
#30 = EDGE_LOOP ( 'NONE', ( #210 ) ) ;
#31 = PERSON_AND_ORGANIZATION_ROLE ( 'design_supplier' ) ;
#32 = EDGE_CURVE ( 'NONE', #42, #42, #187, .T. ) ;
#33 = FACE_OUTER_BOUND ( 'NONE', #202, .T. ) ;
#34 = DIRECTION ( 'NONE',  ( 0.0000000000000000000, 1.000000000000000000, 0.0000000000000000000 ) ) ;
#35 = EDGE_LOOP ( 'NONE', ( #233 ) ) ;
#36 = APPROVAL ( #102, 'UNSPECIFIED' ) ;
#37 = DIRECTION ( 'NONE',  ( 3.491481338843133355E-15, -1.224646799147352961E-16, 1.000000000000000000 ) ) ;
#38 = EDGE_LOOP ( 'NONE', ( #27 ) ) ;
#39 = EDGE_LOOP ( 'NONE', ( #8 ) ) ;
#40 = VERTEX_POINT ( 'NONE', #172 ) ;
#41 = ORIENTED_EDGE ( 'NONE', *, *, #160, .F. ) ;
#42 = VERTEX_POINT ( 'NONE', #66 ) ;
#43 = CIRCLE ( 'NONE', #208, 0.2534999999999993370 ) ;
#44 = FACE_OUTER_BOUND ( 'NONE', #35, .T. ) ;
#45 = CC_DESIGN_DATE_AND_TIME_ASSIGNMENT ( #71, #20, ( #114 ) ) ;
#46 = VERTEX_POINT ( 'NONE', #132 ) ;
#47 = ORGANIZATION ( 'UNSPECIFIED', 'UNSPECIFIED', '' ) ;
#48 =( NAMED_UNIT ( * ) PLANE_ANGLE_UNIT ( ) SI_UNIT ( $, .RADIAN. ) );
#49 = APPLICATION_PROTOCOL_DEFINITION ( 'international standard', 'config_control_design', 1994, #164 ) ;
#50 = DIRECTION ( 'NONE',  ( 0.0000000000000000000, -1.000000000000000000, 0.0000000000000000000 ) ) ;
#51 = APPROVAL_STATUS ( 'not_yet_approved' ) ;
#52 = PRODUCT ( '959662', '959662', '', ( #119 ) ) ;
#53 = ORIENTED_EDGE ( 'NONE', *, *, #270, .F. ) ;
#54 = CC_DESIGN_PERSON_AND_ORGANIZATION_ASSIGNMENT ( #78, #31, ( #67 ) ) ;
#55 = CALENDAR_DATE ( 2021, 26, 11 ) ;
#56 = FACE_OUTER_BOUND ( 'NONE', #12, .T. ) ;
#57 = PERSON_AND_ORGANIZATION ( #238, #47 ) ;
#58 = PLANE ( 'NONE',  #221 ) ;
#59 = CYLINDRICAL_SURFACE ( 'NONE', #257, 0.2534999999999991704 ) ;
#60 = CARTESIAN_POINT ( 'NONE',  ( 3.491481338843132369E-16, -1.224646799147352498E-17, 0.09999999999999996392 ) ) ;
#61 = CARTESIAN_POINT ( 'NONE',  ( 0.0000000000000000000, 0.0000000000000000000, 0.0000000000000000000 ) ) ;
#62 = DIRECTION ( 'NONE',  ( -3.798678391296338285E-31, -1.000000000000000000, -1.069232911721409018E-16 ) ) ;
#63 = CARTESIAN_POINT ( 'NONE',  ( 1.326762908760390423E-13, -4.653657836759941152E-15, 38.00000000000000000 ) ) ;
#64 = AXIS2_PLACEMENT_3D ( 'NONE', #190, #231, #50 ) ;
#65 = ADVANCED_FACE ( 'NONE', ( #214, #44 ), #248, .T. ) ;
#66 = CARTESIAN_POINT ( 'NONE',  ( 1.326762908760390423E-13, 1.199999999999998845, 38.00000000000000000 ) ) ;
#67 = PRODUCT_DEFINITION_FORMATION_WITH_SPECIFIED_SOURCE ( 'ANY', '', #52, .NOT_KNOWN. ) ;
#68 =( NAMED_UNIT ( * ) SI_UNIT ( $, .STERADIAN. ) SOLID_ANGLE_UNIT ( ) );
#69 = AXIS2_PLACEMENT_3D ( 'NONE', #85, #277, #87 ) ;
#70 = CARTESIAN_POINT ( 'NONE',  ( 0.0000000000000000000, 0.0000000000000000000, 0.0000000000000000000 ) ) ;
#71 = DATE_AND_TIME ( #180, #203 ) ;
#72 = CC_DESIGN_PERSON_AND_ORGANIZATION_ASSIGNMENT ( #73, #242, ( #67 ) ) ;
#73 = PERSON_AND_ORGANIZATION ( #238, #47 ) ;
#74 = CONICAL_SURFACE ( 'NONE', #235, 0.2534999999999990039, 0.5235987755982921543 ) ;
#75 = COORDINATED_UNIVERSAL_TIME_OFFSET ( 1, 0, .AHEAD. ) ;
#76 = ADVANCED_FACE ( 'NONE', ( #144, #101 ), #253, .T. ) ;
#77 = LOCAL_TIME ( 15, 47, 27.00000000000000000, #138 ) ;
#78 = PERSON_AND_ORGANIZATION ( #238, #47 ) ;
#79 = DIRECTION ( 'NONE',  ( 3.798678391296338285E-31, 1.000000000000000000, 1.069232911721409018E-16 ) ) ;
#80 = CARTESIAN_POINT ( 'NONE',  ( 1.047444401652940007E-14, 1.900945524523893214E-33, 3.000000000000000000 ) ) ;
#81 = CARTESIAN_POINT ( 'NONE',  ( 1.047444401652940007E-14, 1.900945524523893214E-33, 3.000000000000000000 ) ) ;
#82 = CARTESIAN_POINT ( 'NONE',  ( -8.917129705483258489E-32, 3.127708067607828669E-33, -2.553967453951180933E-17 ) ) ;
#83 = DIRECTION ( 'NONE',  ( -3.491481338843133355E-15, 1.224646799147352961E-16, -1.000000000000000000 ) ) ;
#84 = DIRECTION ( 'NONE',  ( 0.0000000000000000000, 1.000000000000000000, 0.0000000000000000000 ) ) ;
#85 = CARTESIAN_POINT ( 'NONE',  ( 1.866998543791203065E-14, -6.548549365651903409E-16, 5.347296355333847728 ) ) ;
#86 = CC_DESIGN_DATE_AND_TIME_ASSIGNMENT ( #228, #211, ( #225 ) ) ;
#87 = DIRECTION ( 'NONE',  ( 0.0000000000000000000, 1.000000000000000000, 0.0000000000000000000 ) ) ;
#88 = EDGE_LOOP ( 'NONE', ( #255 ) ) ;
#89 = CC_DESIGN_APPROVAL ( #92, ( #114 ) ) ;
#90 = APPLICATION_PROTOCOL_DEFINITION ( 'international standard', 'config_control_design', 1994, #147 ) ;
#91 = PERSON_AND_ORGANIZATION ( #238, #47 ) ;
#92 = APPROVAL ( #154, 'UNSPECIFIED' ) ;
#93 = EDGE_LOOP ( 'NONE', ( #99 ) ) ;
#94 = VERTEX_POINT ( 'NONE', #197 ) ;
#95 = AXIS2_PLACEMENT_3D ( 'NONE', #106, #83, #218 ) ;
#96 = CC_DESIGN_PERSON_AND_ORGANIZATION_ASSIGNMENT ( #178, #201, ( #114 ) ) ;
#97 = PRODUCT_DEFINITION_SHAPE ( 'NONE', 'NONE',  #114 ) ;
#98 = EDGE_LOOP ( 'NONE', ( #141 ) ) ;
#99 = ORIENTED_EDGE ( 'NONE', *, *, #153, .T. ) ;
#100 = LOCAL_TIME ( 15, 47, 27.00000000000000000, #75 ) ;
#101 = FACE_OUTER_BOUND ( 'NONE', #38, .T. ) ;
#102 = APPROVAL_STATUS ( 'not_yet_approved' ) ;
#103 = CARTESIAN_POINT ( 'NONE',  ( 3.491481338843132369E-16, -1.224646799147352498E-17, 0.09999999999999996392 ) ) ;
#104 = CARTESIAN_POINT ( 'NONE',  ( 1.047444401652940007E-14, -3.673940397442059375E-16, 3.000000000000000000 ) ) ;
#105 = VERTEX_POINT ( 'NONE', #152 ) ;
#106 = CARTESIAN_POINT ( 'NONE',  ( 0.0000000000000000000, 0.0000000000000000000, 0.0000000000000000000 ) ) ;
#107 = CC_DESIGN_PERSON_AND_ORGANIZATION_ASSIGNMENT ( #91, #22, ( #52 ) ) ;
#108 = FACE_OUTER_BOUND ( 'NONE', #185, .T. ) ;
#109 = CARTESIAN_POINT ( 'NONE',  ( 4.275050095574143124E-14, -1.499485721861015189E-15, 12.24423011520558902 ) ) ;
#110 = DIRECTION ( 'NONE',  ( -4.275831445896957731E-31, -1.000000000000000000, -1.224646799147352961E-16 ) ) ;
#111 = FACE_BOUND ( 'NONE', #121, .T. ) ;
#112 = CIRCLE ( 'NONE', #267, 0.2534999999999993370 ) ;
#113 = VERTEX_POINT ( 'NONE', #224 ) ;
#114 = PRODUCT_DEFINITION ( 'UNKNOWN', '', #67, #176 ) ;
#115 = APPROVAL_PERSON_ORGANIZATION ( #166, #36, #206 ) ;
#116 = DIRECTION ( 'NONE',  ( 1.000000000000000000, 0.0000000000000000000, 0.0000000000000000000 ) ) ;
#117 = AXIS2_PLACEMENT_3D ( 'NONE', #109, #195, #84 ) ;
#118 = ORIENTED_EDGE ( 'NONE', *, *, #143, .F. ) ;
#119 = MECHANICAL_CONTEXT ( 'NONE', #164, 'mechanical' ) ;
#120 = LOCAL_TIME ( 15, 47, 27.00000000000000000, #28 ) ;
#121 = EDGE_LOOP ( 'NONE', ( #26 ) ) ;
#122 = DATE_AND_TIME ( #265, #100 ) ;
#123 = CC_DESIGN_SECURITY_CLASSIFICATION ( #225, ( #67 ) ) ;
#124 = CARTESIAN_POINT ( 'NONE',  ( 1.745740669421566678E-14, -4.336808689942017736E-16, 5.000000000000000000 ) ) ;
#125 = ORIENTED_EDGE ( 'NONE', *, *, #32, .F. ) ;
#126 = ADVANCED_FACE ( 'NONE', ( #192 ), #15, .F. ) ;
#127 = DIRECTION ( 'NONE',  ( 0.0000000000000000000, 1.000000000000000000, 0.0000000000000000000 ) ) ;
#128 = DIRECTION ( 'NONE',  ( 4.400694708637099227E-31, 1.000000000000000000, 1.224646799147352961E-16 ) ) ;
#129 = DIRECTION ( 'NONE',  ( 0.0000000000000000000, 1.000000000000000000, 0.0000000000000000000 ) ) ;
#130 = PLANE ( 'NONE',  #230 ) ;
#131 = ADVANCED_FACE ( 'NONE', ( #10, #269 ), #59, .T. ) ;
#132 = CARTESIAN_POINT ( 'NONE',  ( 1.047444401652940007E-14, 0.2534999999999989484, 3.000000000000000000 ) ) ;
#133 = FACE_OUTER_BOUND ( 'NONE', #266, .T. ) ;
#134 = CIRCLE ( 'NONE', #117, 1.499999999999996891 ) ;
#135 = COORDINATED_UNIVERSAL_TIME_OFFSET ( 1, 0, .AHEAD. ) ;
#136 = DIRECTION ( 'NONE',  ( 0.0000000000000000000, 1.000000000000000000, 0.0000000000000000000 ) ) ;
#137 = CC_DESIGN_APPROVAL ( #188, ( #67 ) ) ;
#138 = COORDINATED_UNIVERSAL_TIME_OFFSET ( 1, 0, .AHEAD. ) ;
#139 = CIRCLE ( 'NONE', #69, 0.2838844939755804653 ) ;
#140 = DIRECTION ( 'NONE',  ( -3.491481338843133355E-15, 1.224646799147352961E-16, -1.000000000000000000 ) ) ;
#141 = ORIENTED_EDGE ( 'NONE', *, *, #200, .F. ) ;
#142 = AXIS2_PLACEMENT_3D ( 'NONE', #274, #259, #236 ) ;
#143 = EDGE_CURVE ( 'NONE', #105, #105, #14, .T. ) ;
#144 = FACE_OUTER_BOUND ( 'NONE', #273, .T. ) ;
#145 = AXIS2_PLACEMENT_3D ( 'NONE', #157, #140, #13 ) ;
#146 = DIRECTION ( 'NONE',  ( -3.491481338843133355E-15, 1.224646799147352961E-16, -1.000000000000000000 ) ) ;
#147 = APPLICATION_CONTEXT ( 'configuration controlled 3d designs of mechanical parts and assemblies' ) ;
#148 = PLANE ( 'NONE',  #142 ) ;
#149 = ORIENTED_EDGE ( 'NONE', *, *, #153, .F. ) ;
#150 = DIRECTION ( 'NONE',  ( -3.491481338843133355E-15, 1.224646799147352961E-16, -1.000000000000000000 ) ) ;
#151 = APPROVAL_PERSON_ORGANIZATION ( #158, #188, #239 ) ;
#152 = CARTESIAN_POINT ( 'NONE',  ( 1.745740669421566362E-14, 0.2534999999999989484, 4.999999999999999112 ) ) ;
#153 = EDGE_CURVE ( 'NONE', #191, #191, #272, .T. ) ;
#154 = APPROVAL_STATUS ( 'not_yet_approved' ) ;
#155 = TOROIDAL_SURFACE ( 'NONE', #159, 2.253499999999999392, 2.000000000000000000 ) ;
#156 = ADVANCED_FACE ( 'NONE', ( #247, #56 ), #23, .T. ) ;
#157 = CARTESIAN_POINT ( 'NONE',  ( 1.326762908760390423E-13, -4.653657836759941152E-15, 38.00000000000000000 ) ) ;
#158 = PERSON_AND_ORGANIZATION ( #238, #47 ) ;
#159 = AXIS2_PLACEMENT_3D ( 'NONE', #124, #7, #128 ) ;
#160 = EDGE_CURVE ( 'NONE', #46, #46, #43, .T. ) ;
#161 = AXIS2_PLACEMENT_3D ( 'NONE', #234, #146, #220 ) ;
#162 = EDGE_LOOP ( 'NONE', ( #41 ) ) ;
#163 = DIRECTION ( 'NONE',  ( -3.491481338843133355E-15, 1.224646799147352961E-16, -1.000000000000000000 ) ) ;
#164 = APPLICATION_CONTEXT ( 'configuration controlled 3d designs of mechanical parts and assemblies' ) ;
#165 = CARTESIAN_POINT ( 'NONE',  ( 1.047444401652940007E-14, -3.673940397442059375E-16, 3.000000000000000000 ) ) ;
#166 = PERSON_AND_ORGANIZATION ( #238, #47 ) ;
#167 = DIRECTION ( 'NONE',  ( -4.275831445896957731E-31, -1.000000000000000000, -1.224646799147352961E-16 ) ) ;
#168 = FACE_OUTER_BOUND ( 'NONE', #162, .T. ) ;
#169 = DIRECTION ( 'NONE',  ( 3.491481338843133355E-15, -1.224646799147352961E-16, 1.000000000000000000 ) ) ;
#170 = FACE_OUTER_BOUND ( 'NONE', #93, .T. ) ;
#171 = DIRECTION ( 'NONE',  ( 4.275831445896957731E-31, 1.000000000000000000, 1.224646799147352961E-16 ) ) ;
#172 = CARTESIAN_POINT ( 'NONE',  ( 1.316288464743861212E-13, 1.499999999999998668, 37.69999999999999574 ) ) ;
#173 =( GEOMETRIC_REPRESENTATION_CONTEXT ( 3 ) GLOBAL_UNCERTAINTY_ASSIGNED_CONTEXT ( ( #280 ) ) GLOBAL_UNIT_ASSIGNED_CONTEXT ( ( #260, #48, #68 ) ) REPRESENTATION_CONTEXT ( 'NONE', 'WORKASPACE' ) );
#174 = DIRECTION ( 'NONE',  ( -3.491481338843133355E-15, 1.224646799147352961E-16, -1.000000000000000000 ) ) ;
#175 = ADVANCED_FACE ( 'NONE', ( #11, #170 ), #74, .T. ) ;
#176 = DESIGN_CONTEXT ( 'detailed design', #147, 'design' ) ;
#177 = CIRCLE ( 'NONE', #261, 1.500000000000003331 ) ;
#178 = PERSON_AND_ORGANIZATION ( #238, #47 ) ;
#179 = FACE_OUTER_BOUND ( 'NONE', #39, .T. ) ;
#180 = CALENDAR_DATE ( 2021, 26, 11 ) ;
#181 = DATE_AND_TIME ( #227, #77 ) ;
#182 = APPROVAL_DATE_TIME ( #262, #92 ) ;
#183 = CIRCLE ( 'NONE', #204, 0.1957649730810373245 ) ;
#184 = ORIENTED_EDGE ( 'NONE', *, *, #223, .F. ) ;
#185 = EDGE_LOOP ( 'NONE', ( #118 ) ) ;
#186 = EDGE_LOOP ( 'NONE', ( #229 ) ) ;
#187 = CIRCLE ( 'NONE', #282, 1.200000000000003286 ) ;
#188 = APPROVAL ( #51, 'UNSPECIFIED' ) ;
#189 = FACE_OUTER_BOUND ( 'NONE', #245, .T. ) ;
#190 = CARTESIAN_POINT ( 'NONE',  ( 4.275050095574143124E-14, -1.499485721861015189E-15, 12.24423011520558902 ) ) ;
#191 = VERTEX_POINT ( 'NONE', #217 ) ;
#192 = FACE_OUTER_BOUND ( 'NONE', #30, .T. ) ;
#193 = AXIS2_PLACEMENT_3D ( 'NONE', #80, #169, #167 ) ;
#194 = DIRECTION ( 'NONE',  ( -3.491481338843133355E-15, 1.224646799147352961E-16, -1.000000000000000000 ) ) ;
#195 = DIRECTION ( 'NONE',  ( -3.491481338843133355E-15, 1.224646799147352961E-16, -1.000000000000000000 ) ) ;
#196 = DIRECTION ( 'NONE',  ( -3.491481338843133355E-15, 1.224646799147352961E-16, -1.000000000000000000 ) ) ;
#197 = CARTESIAN_POINT ( 'NONE',  ( 1.047444401652940007E-14, 0.2534999999999989484, 3.000000000000000000 ) ) ;
#198 = APPROVAL_ROLE ( '' ) ;
#199 = AXIS2_PLACEMENT_3D ( 'NONE', #268, #150, #212 ) ;
#200 = EDGE_CURVE ( 'NONE', #18, #18, #134, .T. ) ;
#201 = PERSON_AND_ORGANIZATION_ROLE ( 'creator' ) ;
#202 = EDGE_LOOP ( 'NONE', ( #243 ) ) ;
#203 = LOCAL_TIME ( 15, 47, 27.00000000000000000, #283 ) ;
#204 = AXIS2_PLACEMENT_3D ( 'NONE', #275, #174, #279 ) ;
#205 = ORIENTED_EDGE ( 'NONE', *, *, #200, .T. ) ;
#206 = APPROVAL_ROLE ( '' ) ;
#207 = SECURITY_CLASSIFICATION_LEVEL ( 'unclassified' ) ;
#208 = AXIS2_PLACEMENT_3D ( 'NONE', #104, #213, #34 ) ;
#209 = DIRECTION ( 'NONE',  ( -4.275831445896957731E-31, -1.000000000000000000, -1.224646799147352961E-16 ) ) ;
#210 = ORIENTED_EDGE ( 'NONE', *, *, #223, .T. ) ;
#211 = DATE_TIME_ROLE ( 'classification_date' ) ;
#212 = DIRECTION ( 'NONE',  ( 4.275831445896956855E-31, 1.000000000000000000, 1.224646799147352961E-16 ) ) ;
#213 = DIRECTION ( 'NONE',  ( -3.491481338843133355E-15, 1.224646799147352961E-16, -1.000000000000000000 ) ) ;
#214 = FACE_OUTER_BOUND ( 'NONE', #98, .T. ) ;
#215 = ADVANCED_BREP_SHAPE_REPRESENTATION ( '959662', ( #17, #19, #241 ), #173 ) ;
#216 = APPROVAL_PERSON_ORGANIZATION ( #237, #92, #198 ) ;
#217 = CARTESIAN_POINT ( 'NONE',  ( 3.491481338843133355E-16, 0.2534999999999990039, 0.09999999999999999167 ) ) ;
#218 = DIRECTION ( 'NONE',  ( 4.275831445896957731E-31, 1.000000000000000000, 1.224646799147353207E-16 ) ) ;
#219 = DIRECTION ( 'NONE',  ( 3.491481338843133355E-15, -1.224646799147352961E-16, 1.000000000000000000 ) ) ;
#220 = DIRECTION ( 'NONE',  ( 0.0000000000000000000, 1.000000000000000000, 0.0000000000000000000 ) ) ;
#221 = AXIS2_PLACEMENT_3D ( 'NONE', #82, #252, #209 ) ;
#222 = CALENDAR_DATE ( 2021, 26, 11 ) ;
#223 = EDGE_CURVE ( 'NONE', #94, #94, #112, .T. ) ;
#224 = CARTESIAN_POINT ( 'NONE',  ( -9.463679131915807877E-32, 0.1957649730810373245, -2.710505431213761085E-17 ) ) ;
#225 = SECURITY_CLASSIFICATION ( '', '', #207 ) ;
#226 = ADVANCED_FACE ( 'NONE', ( #179, #111 ), #5, .T. ) ;
#227 = CALENDAR_DATE ( 2021, 26, 11 ) ;
#228 = DATE_AND_TIME ( #55, #120 ) ;
#229 = ORIENTED_EDGE ( 'NONE', *, *, #160, .T. ) ;
#230 = AXIS2_PLACEMENT_3D ( 'NONE', #81, #37, #110 ) ;
#231 = DIRECTION ( 'NONE',  ( 3.491481338843133355E-15, -1.224646799147352961E-16, 1.000000000000000000 ) ) ;
#232 = CC_DESIGN_PERSON_AND_ORGANIZATION_ASSIGNMENT ( #57, #246, ( #225 ) ) ;
#233 = ORIENTED_EDGE ( 'NONE', *, *, #21, .T. ) ;
#234 = CARTESIAN_POINT ( 'NONE',  ( 1.745740669421566362E-14, -6.123233995736764310E-16, 4.999999999999999112 ) ) ;
#235 = AXIS2_PLACEMENT_3D ( 'NONE', #60, #219, #62 ) ;
#236 = DIRECTION ( 'NONE',  ( 4.275831445896957731E-31, 1.000000000000000000, 1.224646799147352961E-16 ) ) ;
#237 = PERSON_AND_ORGANIZATION ( #238, #47 ) ;
#238 = PERSON ( 'UNSPECIFIED', 'UNSPECIFIED', 'UNSPECIFIED', ('UNSPECIFIED'), ('UNSPECIFIED'), ('UNSPECIFIED') ) ;
#239 = APPROVAL_ROLE ( '' ) ;
#240 = LOCAL_TIME ( 15, 47, 27.00000000000000000, #135 ) ;
#241 = AXIS2_PLACEMENT_3D ( 'NONE', #70, #25, #116 ) ;
#242 = PERSON_AND_ORGANIZATION_ROLE ( 'creator' ) ;
#243 = ORIENTED_EDGE ( 'NONE', *, *, #270, .T. ) ;
#244 = EDGE_LOOP ( 'NONE', ( #149 ) ) ;
#245 = EDGE_LOOP ( 'NONE', ( #2 ) ) ;
#246 = PERSON_AND_ORGANIZATION_ROLE ( 'classification_officer' ) ;
#247 = FACE_BOUND ( 'NONE', #3, .T. ) ;
#248 = CYLINDRICAL_SURFACE ( 'NONE', #95, 1.500000000000000000 ) ;
#249 = AXIS2_PLACEMENT_3D ( 'NONE', #103, #16, #79 ) ;
#250 = CARTESIAN_POINT ( 'NONE',  ( 1.316288464743861212E-13, -4.616918432785520292E-15, 37.69999999999999574 ) ) ;
#251 = ADVANCED_FACE ( 'NONE', ( #133 ), #148, .F. ) ;
#252 = DIRECTION ( 'NONE',  ( 3.491481338843133355E-15, -1.224646799147352961E-16, 1.000000000000000000 ) ) ;
#253 = CYLINDRICAL_SURFACE ( 'NONE', #199, 0.2534999999999994480 ) ;
#254 = DIRECTION ( 'NONE',  ( -3.491481338843133355E-15, 1.224646799147352961E-16, -1.000000000000000000 ) ) ;
#255 = ORIENTED_EDGE ( 'NONE', *, *, #258, .F. ) ;
#256 = CC_DESIGN_APPROVAL ( #36, ( #225 ) ) ;
#257 = AXIS2_PLACEMENT_3D ( 'NONE', #61, #194, #171 ) ;
#258 = EDGE_CURVE ( 'NONE', #113, #113, #183, .T. ) ;
#259 = DIRECTION ( 'NONE',  ( -3.491481338843133355E-15, 1.224646799147352961E-16, -1.000000000000000000 ) ) ;
#260 =( LENGTH_UNIT ( ) NAMED_UNIT ( * ) SI_UNIT ( .MILLI., .METRE. ) );
#261 = AXIS2_PLACEMENT_3D ( 'NONE', #250, #196, #127 ) ;
#262 = DATE_AND_TIME ( #222, #240 ) ;
#263 = APPROVAL_DATE_TIME ( #181, #188 ) ;
#264 = CLOSED_SHELL ( 'NONE', ( #29, #175, #131, #6 ) ) ;
#265 = CALENDAR_DATE ( 2021, 26, 11 ) ;
#266 = EDGE_LOOP ( 'NONE', ( #125 ) ) ;
#267 = AXIS2_PLACEMENT_3D ( 'NONE', #165, #254, #136 ) ;
#268 = CARTESIAN_POINT ( 'NONE',  ( 0.0000000000000000000, 0.0000000000000000000, 0.0000000000000000000 ) ) ;
#269 = FACE_OUTER_BOUND ( 'NONE', #186, .T. ) ;
#270 = EDGE_CURVE ( 'NONE', #24, #24, #139, .T. ) ;
#271 = CARTESIAN_POINT ( 'NONE',  ( 4.275050095574143124E-14, 1.499999999999995559, 12.24423011520558902 ) ) ;
#272 = CIRCLE ( 'NONE', #249, 0.2534999999999990039 ) ;
#273 = EDGE_LOOP ( 'NONE', ( #184 ) ) ;
#274 = CARTESIAN_POINT ( 'NONE',  ( 1.326762908760390423E-13, 8.998558695971099120E-33, 38.00000000000000000 ) ) ;
#275 = CARTESIAN_POINT ( 'NONE',  ( -1.783425941096651698E-31, 6.255416135215657337E-33, -5.107934907902361866E-17 ) ) ;
#276 = SHAPE_DEFINITION_REPRESENTATION ( #97, #215 ) ;
#277 = DIRECTION ( 'NONE',  ( -3.491481338843133355E-15, 1.224646799147352961E-16, -1.000000000000000000 ) ) ;
#278 = CLOSED_SHELL ( 'NONE', ( #126, #76, #1, #156, #65, #226, #251 ) ) ;
#279 = DIRECTION ( 'NONE',  ( 4.275831445896957731E-31, 1.000000000000000000, 1.224646799147353207E-16 ) ) ;
#280 = UNCERTAINTY_MEASURE_WITH_UNIT (LENGTH_MEASURE( 1.000000000000000082E-05 ), #260, 'distance_accuracy_value', 'NONE');
#281 = CARTESIAN_POINT ( 'NONE',  ( 1.866998543791203065E-14, 0.2838844939755797991, 5.347296355333847728 ) ) ;
#282 = AXIS2_PLACEMENT_3D ( 'NONE', #63, #163, #129 ) ;
#283 = COORDINATED_UNIVERSAL_TIME_OFFSET ( 1, 0, .AHEAD. ) ;
ENDSEC;
END-ISO-10303-21;
