ISO-10303-21;
HEADER;
FILE_DESCRIPTION (( 'STEP AP203' ),
    '1' );
FILE_NAME ('959620.step',
    '2021-11-30T08:32:47',
    ( '' ),
    ( '' ),
    'SwSTEP 2.0',
    'SolidWorks 2019',
    '' );
FILE_SCHEMA (( 'CONFIG_CONTROL_DESIGN' ));
ENDSEC;

DATA;
#1 = DIRECTION ( 'NONE',  ( -3.491481338843133355E-15, 1.224646799147353207E-16, -1.000000000000000000 ) ) ;
#2 = DESIGN_CONTEXT ( 'detailed design', #190, 'design' ) ;
#3 = APPROVAL_STATUS ( 'not_yet_approved' ) ;
#4 = EDGE_LOOP ( 'NONE', ( #262 ) ) ;
#5 = COORDINATED_UNIVERSAL_TIME_OFFSET ( 1, 0, .AHEAD. ) ;
#6 = CARTESIAN_POINT ( 'NONE',  ( 8.728703347107829444E-16, -3.061616997868381785E-17, 0.2499999999999998890 ) ) ;
#7 = CARTESIAN_POINT ( 'NONE',  ( -2.797088300474207651E-31, 9.810865078955956117E-33, -8.011179293316785621E-17 ) ) ;
#8 = APPROVAL_STATUS ( 'not_yet_approved' ) ;
#9 = ORIENTED_EDGE ( 'NONE', *, *, #159, .T. ) ;
#10 = PERSON_AND_ORGANIZATION ( #289, #194 ) ;
#11 = EDGE_LOOP ( 'NONE', ( #171 ) ) ;
#12 = ADVANCED_FACE ( 'NONE', ( #58, #215 ), #101, .T. ) ;
#13 = DIRECTION ( 'NONE',  ( 0.0000000000000000000, 1.000000000000000000, 0.0000000000000000000 ) ) ;
#14 = CIRCLE ( 'NONE', #20, 1.200000000000001732 ) ;
#15 = CIRCLE ( 'NONE', #207, 0.7984999999999990994 ) ;
#16 = APPLICATION_CONTEXT ( 'configuration controlled 3d designs of mechanical parts and assemblies' ) ;
#17 = CARTESIAN_POINT ( 'NONE',  ( 6.892309574038474885E-14, -2.417496769831110922E-15, 19.74035919184426291 ) ) ;
#18 = DIRECTION ( 'NONE',  ( -3.491481338843133355E-15, 1.224646799147353207E-16, -1.000000000000000000 ) ) ;
#19 = FACE_OUTER_BOUND ( 'NONE', #287, .T. ) ;
#20 = AXIS2_PLACEMENT_3D ( 'NONE', #252, #205, #209 ) ;
#21 = DIRECTION ( 'NONE',  ( -3.491481338843133355E-15, 1.224646799147353207E-16, -1.000000000000000000 ) ) ;
#22 = VERTEX_POINT ( 'NONE', #282 ) ;
#23 = APPLICATION_PROTOCOL_DEFINITION ( 'international standard', 'config_control_design', 1994, #16 ) ;
#24 = FACE_OUTER_BOUND ( 'NONE', #130, .T. ) ;
#25 = UNCERTAINTY_MEASURE_WITH_UNIT (LENGTH_MEASURE( 1.000000000000000082E-05 ), #72, 'distance_accuracy_value', 'NONE');
#26 = DIRECTION ( 'NONE',  ( 0.0000000000000000000, 0.0000000000000000000, 1.000000000000000000 ) ) ;
#27 = APPROVAL ( #150, 'UNSPECIFIED' ) ;
#28 = CYLINDRICAL_SURFACE ( 'NONE', #125, 0.6949999999999998401 ) ;
#29 = APPROVAL_ROLE ( '' ) ;
#30 = PERSON_AND_ORGANIZATION_ROLE ( 'design_supplier' ) ;
#31 = EDGE_LOOP ( 'NONE', ( #290 ) ) ;
#32 = APPROVAL_DATE_TIME ( #291, #27 ) ;
#33 = ORIENTED_EDGE ( 'NONE', *, *, #115, .T. ) ;
#34 = EDGE_LOOP ( 'NONE', ( #176 ) ) ;
#35 = CIRCLE ( 'NONE', #87, 1.500000000000001554 ) ;
#36 = CALENDAR_DATE ( 2021, 30, 11 ) ;
#37 = EDGE_LOOP ( 'NONE', ( #82 ) ) ;
#38 = ADVANCED_FACE ( 'NONE', ( #220, #152 ), #240, .T. ) ;
#39 = EDGE_CURVE ( 'NONE', #66, #66, #233, .T. ) ;
#40 = ORIENTED_EDGE ( 'NONE', *, *, #89, .F. ) ;
#41 = FACE_OUTER_BOUND ( 'NONE', #34, .T. ) ;
#42 = CIRCLE ( 'NONE', #174, 0.6949999999999999512 ) ;
#43 = DIRECTION ( 'NONE',  ( -4.275831445896958607E-31, -1.000000000000000000, -1.224646799147353207E-16 ) ) ;
#44 = CARTESIAN_POINT ( 'NONE',  ( 2.444036937190193349E-14, -8.572527594031473190E-16, 7.000000000000000000 ) ) ;
#45 = DIRECTION ( 'NONE',  ( 4.823869616499030625E-31, 1.000000000000000000, 1.357798587959305735E-16 ) ) ;
#46 = AXIS2_PLACEMENT_3D ( 'NONE', #275, #113, #43 ) ;
#47 = CARTESIAN_POINT ( 'NONE',  ( 2.506627765991136237E-14, 0.6949999999999989519, 7.179267258583378108 ) ) ;
#48 = CARTESIAN_POINT ( 'NONE',  ( 2.444036937190193349E-14, 0.7984999999999990994, 7.000000000000000000 ) ) ;
#49 = VERTEX_POINT ( 'NONE', #47 ) ;
#50 = CLOSED_SHELL ( 'NONE', ( #56, #12, #38, #199 ) ) ;
#51 = AXIS2_PLACEMENT_3D ( 'NONE', #44, #137, #13 ) ;
#52 = CARTESIAN_POINT ( 'NONE',  ( 5.237222008264700033E-14, 0.6949999999999981748, 15.00000000000000000 ) ) ;
#53 = SHAPE_DEFINITION_REPRESENTATION ( #242, #161 ) ;
#54 = DATE_TIME_ROLE ( 'classification_date' ) ;
#55 = ADVANCED_FACE ( 'NONE', ( #41, #155 ), #217, .F. ) ;
#56 = ADVANCED_FACE ( 'NONE', ( #208 ), #84, .F. ) ;
#57 = ORIENTED_EDGE ( 'NONE', *, *, #39, .T. ) ;
#58 = FACE_BOUND ( 'NONE', #241, .T. ) ;
#59 = DIRECTION ( 'NONE',  ( 0.0000000000000000000, 1.000000000000000000, 0.0000000000000000000 ) ) ;
#60 = FACE_OUTER_BOUND ( 'NONE', #267, .T. ) ;
#61 = CARTESIAN_POINT ( 'NONE',  ( -1.398544150237103826E-31, 4.905432539477978058E-33, -4.005589646658392810E-17 ) ) ;
#62 = CARTESIAN_POINT ( 'NONE',  ( 5.237222008264700033E-14, -1.734723475976807094E-15, 15.00000000000000000 ) ) ;
#63 = ADVANCED_FACE ( 'NONE', ( #19, #60 ), #227, .T. ) ;
#64 = FACE_OUTER_BOUND ( 'NONE', #31, .T. ) ;
#65 = AXIS2_PLACEMENT_3D ( 'NONE', #177, #203, #224 ) ;
#66 = VERTEX_POINT ( 'NONE', #140 ) ;
#67 = VERTEX_POINT ( 'NONE', #120 ) ;
#68 = DIRECTION ( 'NONE',  ( 0.0000000000000000000, 1.000000000000000000, 0.0000000000000000000 ) ) ;
#69 = CIRCLE ( 'NONE', #283, 1.499999999999996447 ) ;
#70 = AXIS2_PLACEMENT_3D ( 'NONE', #277, #156, #138 ) ;
#71 = VERTEX_POINT ( 'NONE', #231 ) ;
#72 =( LENGTH_UNIT ( ) NAMED_UNIT ( * ) SI_UNIT ( .MILLI., .METRE. ) );
#73 = APPROVAL_ROLE ( '' ) ;
#74 = ORIENTED_EDGE ( 'NONE', *, *, #173, .T. ) ;
#75 = CALENDAR_DATE ( 2021, 30, 11 ) ;
#76 = DIRECTION ( 'NONE',  ( 3.491481338843133355E-15, -1.224646799147353207E-16, 1.000000000000000000 ) ) ;
#77 = EDGE_LOOP ( 'NONE', ( #216 ) ) ;
#78 = CC_DESIGN_PERSON_AND_ORGANIZATION_ASSIGNMENT ( #107, #200, ( #243 ) ) ;
#79 = PERSON_AND_ORGANIZATION ( #289, #194 ) ;
#80 = EDGE_LOOP ( 'NONE', ( #98 ) ) ;
#81 = APPROVAL_DATE_TIME ( #268, #274 ) ;
#82 = ORIENTED_EDGE ( 'NONE', *, *, #115, .F. ) ;
#83 = CONICAL_SURFACE ( 'NONE', #142, 0.7984999999999999876, 0.5235987755983008141 ) ;
#84 = PLANE ( 'NONE',  #276 ) ;
#85 = CARTESIAN_POINT ( 'NONE',  ( 0.0000000000000000000, 0.0000000000000000000, 0.0000000000000000000 ) ) ;
#86 = CARTESIAN_POINT ( 'NONE',  ( 8.728703347107829444E-16, -3.061616997868381785E-17, 0.2499999999999998890 ) ) ;
#87 = AXIS2_PLACEMENT_3D ( 'NONE', #134, #112, #251 ) ;
#88 = CARTESIAN_POINT ( 'NONE',  ( 2.506627765991136237E-14, -8.792066668447528551E-16, 7.179267258583378108 ) ) ;
#89 = EDGE_CURVE ( 'NONE', #67, #67, #69, .T. ) ;
#90 = FACE_OUTER_BOUND ( 'NONE', #80, .T. ) ;
#91 = VERTEX_POINT ( 'NONE', #121 ) ;
#92 = CIRCLE ( 'NONE', #51, 0.7984999999999999876 ) ;
#93 = PERSON_AND_ORGANIZATION_ROLE ( 'design_owner' ) ;
#94 = FACE_BOUND ( 'NONE', #77, .T. ) ;
#95 = DIRECTION ( 'NONE',  ( -3.491481338843133355E-15, 1.224646799147353207E-16, -1.000000000000000000 ) ) ;
#96 = AXIS2_PLACEMENT_3D ( 'NONE', #62, #21, #247 ) ;
#97 = CC_DESIGN_PERSON_AND_ORGANIZATION_ASSIGNMENT ( #131, #102, ( #302 ) ) ;
#98 = ORIENTED_EDGE ( 'NONE', *, *, #144, .F. ) ;
#99 = CALENDAR_DATE ( 2021, 30, 11 ) ;
#100 = DIRECTION ( 'NONE',  ( 4.275831445896957731E-31, 1.000000000000000000, 1.224646799147353207E-16 ) ) ;
#101 = CONICAL_SURFACE ( 'NONE', #279, 0.7984999999999990994, 0.5235987755982924874 ) ;
#102 = PERSON_AND_ORGANIZATION_ROLE ( 'creator' ) ;
#103 = AXIS2_PLACEMENT_3D ( 'NONE', #230, #26, #185 ) ;
#104 = CC_DESIGN_SECURITY_CLASSIFICATION ( #243, ( #288 ) ) ;
#105 = DIRECTION ( 'NONE',  ( -3.491481338843133355E-15, 1.224646799147353207E-16, -1.000000000000000000 ) ) ;
#106 = ORIENTED_EDGE ( 'NONE', *, *, #198, .T. ) ;
#107 = PERSON_AND_ORGANIZATION ( #289, #194 ) ;
#108 = AXIS2_PLACEMENT_3D ( 'NONE', #7, #105, #196 ) ;
#109 = DIRECTION ( 'NONE',  ( -3.491481338843133355E-15, 1.224646799147353207E-16, -1.000000000000000000 ) ) ;
#110 = LOCAL_TIME ( 9, 32, 47.00000000000000000, #261 ) ;
#111 = EDGE_CURVE ( 'NONE', #49, #49, #149, .T. ) ;
#112 = DIRECTION ( 'NONE',  ( -3.491481338843133355E-15, 1.224646799147353207E-16, -1.000000000000000000 ) ) ;
#113 = DIRECTION ( 'NONE',  ( 3.491481338843133355E-15, -1.224646799147353207E-16, 1.000000000000000000 ) ) ;
#114 = DIRECTION ( 'NONE',  ( -3.491481338843133355E-15, 1.224646799147353207E-16, -1.000000000000000000 ) ) ;
#115 = EDGE_CURVE ( 'NONE', #91, #91, #202, .T. ) ;
#116 = DIRECTION ( 'NONE',  ( 4.275831445896958607E-31, 1.000000000000000000, 1.224646799147353454E-16 ) ) ;
#117 =( NAMED_UNIT ( * ) SI_UNIT ( $, .STERADIAN. ) SOLID_ANGLE_UNIT ( ) );
#118 = DIRECTION ( 'NONE',  ( 0.0000000000000000000, 1.000000000000000000, 0.0000000000000000000 ) ) ;
#119 = LOCAL_TIME ( 9, 32, 47.00000000000000000, #127 ) ;
#120 = CARTESIAN_POINT ( 'NONE',  ( 6.892309574038474885E-14, 1.499999999999994005, 19.74035919184426291 ) ) ;
#121 = CARTESIAN_POINT ( 'NONE',  ( 5.358479882634336420E-14, 0.7253844939755784704, 15.34729635533384773 ) ) ;
#122 = VERTEX_POINT ( 'NONE', #189 ) ;
#123 = EDGE_CURVE ( 'NONE', #22, #22, #146, .T. ) ;
#124 = CC_DESIGN_PERSON_AND_ORGANIZATION_ASSIGNMENT ( #169, #166, ( #288 ) ) ;
#125 = AXIS2_PLACEMENT_3D ( 'NONE', #300, #256, #235 ) ;
#126 = DATE_TIME_ROLE ( 'creation_date' ) ;
#127 = COORDINATED_UNIVERSAL_TIME_OFFSET ( 1, 0, .AHEAD. ) ;
#128 = EDGE_LOOP ( 'NONE', ( #74 ) ) ;
#129 = APPROVAL_PERSON_ORGANIZATION ( #280, #248, #244 ) ;
#130 = EDGE_LOOP ( 'NONE', ( #201 ) ) ;
#131 = PERSON_AND_ORGANIZATION ( #289, #194 ) ;
#132 = EDGE_LOOP ( 'NONE', ( #167 ) ) ;
#133 = DIRECTION ( 'NONE',  ( 0.0000000000000000000, -1.000000000000000000, 0.0000000000000000000 ) ) ;
#134 = CARTESIAN_POINT ( 'NONE',  ( 1.735266225405037467E-13, -6.086494591762345225E-15, 49.70000000000000284 ) ) ;
#135 = DIRECTION ( 'NONE',  ( -4.275831445896958607E-31, -1.000000000000000000, -1.224646799147353207E-16 ) ) ;
#136 = CC_DESIGN_PERSON_AND_ORGANIZATION_ASSIGNMENT ( #79, #30, ( #288 ) ) ;
#137 = DIRECTION ( 'NONE',  ( -3.491481338843133355E-15, 1.224646799147353207E-16, -1.000000000000000000 ) ) ;
#138 = DIRECTION ( 'NONE',  ( -4.275831445896958607E-31, -1.000000000000000000, -1.224646799147353207E-16 ) ) ;
#139 = LOCAL_TIME ( 9, 32, 47.00000000000000000, #5 ) ;
#140 = CARTESIAN_POINT ( 'NONE',  ( 4.276423536147513034E-47, 0.6541624327025947760, 0.0000000000000000000 ) ) ;
#141 = VERTEX_POINT ( 'NONE', #232 ) ;
#142 = AXIS2_PLACEMENT_3D ( 'NONE', #192, #1, #118 ) ;
#143 = FACE_OUTER_BOUND ( 'NONE', #245, .T. ) ;
#144 = EDGE_CURVE ( 'NONE', #71, #71, #14, .T. ) ;
#145 = EDGE_CURVE ( 'NONE', #255, #255, #42, .T. ) ;
#146 = CIRCLE ( 'NONE', #187, 0.7984999999999999876 ) ;
#147 = EDGE_LOOP ( 'NONE', ( #269 ) ) ;
#148 = COORDINATED_UNIVERSAL_TIME_OFFSET ( 1, 0, .AHEAD. ) ;
#149 = CIRCLE ( 'NONE', #270, 0.6949999999999998401 ) ;
#150 = APPROVAL_STATUS ( 'not_yet_approved' ) ;
#151 = EDGE_LOOP ( 'NONE', ( #265 ) ) ;
#152 = FACE_OUTER_BOUND ( 'NONE', #271, .T. ) ;
#153 = DIRECTION ( 'NONE',  ( -3.491481338843133355E-15, 1.224646799147353207E-16, -1.000000000000000000 ) ) ;
#154 = DIRECTION ( 'NONE',  ( 3.491481338843133355E-15, -1.224646799147353207E-16, 1.000000000000000000 ) ) ;
#155 = FACE_OUTER_BOUND ( 'NONE', #292, .T. ) ;
#156 = DIRECTION ( 'NONE',  ( 3.491481338843133355E-15, -1.224646799147353207E-16, 1.000000000000000000 ) ) ;
#157 = CARTESIAN_POINT ( 'NONE',  ( 6.892309574038474885E-14, -2.417496769831110922E-15, 19.74035919184426291 ) ) ;
#158 = FACE_BOUND ( 'NONE', #11, .T. ) ;
#159 = EDGE_CURVE ( 'NONE', #141, #141, #35, .T. ) ;
#160 = CARTESIAN_POINT ( 'NONE',  ( 1.745740669421566678E-13, -6.123233995736766085E-15, 50.00000000000000000 ) ) ;
#161 = ADVANCED_BREP_SHAPE_REPRESENTATION ( '959620', ( #165, #272, #103 ), #301 ) ;
#162 = ADVANCED_FACE ( 'NONE', ( #299 ), #178, .F. ) ;
#163 = VERTEX_POINT ( 'NONE', #48 ) ;
#164 = PRODUCT ( '959620', '959620', '', ( #211 ) ) ;
#165 = MANIFOLD_SOLID_BREP ( 'Corps-Déplacer/Copier1[1]', #186 ) ;
#166 = PERSON_AND_ORGANIZATION_ROLE ( 'creator' ) ;
#167 = ORIENTED_EDGE ( 'NONE', *, *, #145, .T. ) ;
#168 = LOCAL_TIME ( 9, 32, 47.00000000000000000, #148 ) ;
#169 = PERSON_AND_ORGANIZATION ( #289, #194 ) ;
#170 = DIRECTION ( 'NONE',  ( -4.823869616499030625E-31, -1.000000000000000000, -1.357798587959305735E-16 ) ) ;
#171 = ORIENTED_EDGE ( 'NONE', *, *, #111, .T. ) ;
#172 = APPROVAL_DATE_TIME ( #221, #248 ) ;
#173 = EDGE_CURVE ( 'NONE', #122, #122, #15, .T. ) ;
#174 = AXIS2_PLACEMENT_3D ( 'NONE', #295, #250, #59 ) ;
#175 = CC_DESIGN_DATE_AND_TIME_ASSIGNMENT ( #266, #126, ( #302 ) ) ;
#176 = ORIENTED_EDGE ( 'NONE', *, *, #145, .F. ) ;
#177 = CARTESIAN_POINT ( 'NONE',  ( 5.358479882634336420E-14, -1.879501735712543696E-15, 15.34729635533384773 ) ) ;
#178 = PLANE ( 'NONE',  #46 ) ;
#179 = LOCAL_TIME ( 9, 32, 47.00000000000000000, #219 ) ;
#180 = DIRECTION ( 'NONE',  ( 4.275831445896958607E-31, 1.000000000000000000, 1.224646799147353207E-16 ) ) ;
#181 = APPROVAL_PERSON_ORGANIZATION ( #259, #27, #73 ) ;
#182 = DIRECTION ( 'NONE',  ( 0.0000000000000000000, 1.000000000000000000, 0.0000000000000000000 ) ) ;
#183 = PLANE ( 'NONE',  #257 ) ;
#184 = ADVANCED_FACE ( 'NONE', ( #90 ), #183, .F. ) ;
#185 = DIRECTION ( 'NONE',  ( 1.000000000000000000, 0.0000000000000000000, 0.0000000000000000000 ) ) ;
#186 = CLOSED_SHELL ( 'NONE', ( #162, #229, #284, #55, #228, #63, #236, #184 ) ) ;
#187 = AXIS2_PLACEMENT_3D ( 'NONE', #293, #294, #204 ) ;
#188 = APPLICATION_PROTOCOL_DEFINITION ( 'international standard', 'config_control_design', 1994, #190 ) ;
#189 = CARTESIAN_POINT ( 'NONE',  ( 8.728703347107833388E-16, 0.7984999999999990994, 0.2500000000000000000 ) ) ;
#190 = APPLICATION_CONTEXT ( 'configuration controlled 3d designs of mechanical parts and assemblies' ) ;
#191 = FACE_OUTER_BOUND ( 'NONE', #147, .T. ) ;
#192 = CARTESIAN_POINT ( 'NONE',  ( 2.444036937190193349E-14, -8.572527594031473190E-16, 7.000000000000000000 ) ) ;
#193 = ORIENTED_EDGE ( 'NONE', *, *, #198, .F. ) ;
#194 = ORGANIZATION ( 'UNSPECIFIED', 'UNSPECIFIED', '' ) ;
#195 = CALENDAR_DATE ( 2021, 30, 11 ) ;
#196 = DIRECTION ( 'NONE',  ( 4.275831445896959482E-31, 1.000000000000000000, 1.224646799147353207E-16 ) ) ;
#197 = CARTESIAN_POINT ( 'NONE',  ( 0.0000000000000000000, 0.0000000000000000000, 0.0000000000000000000 ) ) ;
#198 = EDGE_CURVE ( 'NONE', #163, #163, #92, .T. ) ;
#199 = ADVANCED_FACE ( 'NONE', ( #254 ), #226, .T. ) ;
#200 = PERSON_AND_ORGANIZATION_ROLE ( 'classification_officer' ) ;
#201 = ORIENTED_EDGE ( 'NONE', *, *, #159, .F. ) ;
#202 = CIRCLE ( 'NONE', #65, 0.7253844939755803578 ) ;
#203 = DIRECTION ( 'NONE',  ( -3.491481338843133355E-15, 1.224646799147353207E-16, -1.000000000000000000 ) ) ;
#204 = DIRECTION ( 'NONE',  ( 0.0000000000000000000, 1.000000000000000000, 0.0000000000000000000 ) ) ;
#205 = DIRECTION ( 'NONE',  ( -3.491481338843133355E-15, 1.224646799147353207E-16, -1.000000000000000000 ) ) ;
#206 = AXIS2_PLACEMENT_3D ( 'NONE', #85, #298, #116 ) ;
#207 = AXIS2_PLACEMENT_3D ( 'NONE', #86, #114, #45 ) ;
#208 = FACE_OUTER_BOUND ( 'NONE', #238, .T. ) ;
#209 = DIRECTION ( 'NONE',  ( 0.0000000000000000000, 1.000000000000000000, 0.0000000000000000000 ) ) ;
#210 = PRODUCT_RELATED_PRODUCT_CATEGORY ( 'detail', '', ( #164 ) ) ;
#211 = MECHANICAL_CONTEXT ( 'NONE', #16, 'mechanical' ) ;
#212 = DATE_AND_TIME ( #195, #110 ) ;
#213 = EDGE_LOOP ( 'NONE', ( #193 ) ) ;
#214 = CC_DESIGN_PERSON_AND_ORGANIZATION_ASSIGNMENT ( #303, #93, ( #164 ) ) ;
#215 = FACE_OUTER_BOUND ( 'NONE', #128, .T. ) ;
#216 = ORIENTED_EDGE ( 'NONE', *, *, #144, .T. ) ;
#217 = TOROIDAL_SURFACE ( 'NONE', #96, 2.694999999999999840, 2.000000000000000888 ) ;
#218 = CONICAL_SURFACE ( 'NONE', #263, 1.200000000000001732, 0.7853981633974453924 ) ;
#219 = COORDINATED_UNIVERSAL_TIME_OFFSET ( 1, 0, .AHEAD. ) ;
#220 = FACE_OUTER_BOUND ( 'NONE', #4, .T. ) ;
#221 = DATE_AND_TIME ( #36, #168 ) ;
#222 = ORIENTED_EDGE ( 'NONE', *, *, #39, .F. ) ;
#223 = DIRECTION ( 'NONE',  ( 3.491481338843133355E-15, -1.224646799147353207E-16, 1.000000000000000000 ) ) ;
#224 = DIRECTION ( 'NONE',  ( 0.0000000000000000000, 1.000000000000000000, 0.0000000000000000000 ) ) ;
#225 = CARTESIAN_POINT ( 'NONE',  ( 1.745740669421566678E-13, 8.998558695971067645E-33, 50.00000000000000000 ) ) ;
#226 = PLANE ( 'NONE',  #70 ) ;
#227 = CYLINDRICAL_SURFACE ( 'NONE', #206, 1.499999999999998890 ) ;
#228 = ADVANCED_FACE ( 'NONE', ( #278, #64 ), #237, .T. ) ;
#229 = ADVANCED_FACE ( 'NONE', ( #158, #143 ), #83, .T. ) ;
#230 = CARTESIAN_POINT ( 'NONE',  ( 0.0000000000000000000, 0.0000000000000000000, 0.0000000000000000000 ) ) ;
#231 = CARTESIAN_POINT ( 'NONE',  ( 1.745740669421566678E-13, 1.199999999999995515, 50.00000000000000000 ) ) ;
#232 = CARTESIAN_POINT ( 'NONE',  ( 1.735266225405037467E-13, 1.499999999999995559, 49.70000000000000284 ) ) ;
#233 = CIRCLE ( 'NONE', #108, 0.6541624327025947760 ) ;
#234 = APPROVAL_PERSON_ORGANIZATION ( #10, #274, #29 ) ;
#235 = DIRECTION ( 'NONE',  ( 4.275831445896958607E-31, 1.000000000000000000, 1.224646799147353207E-16 ) ) ;
#236 = ADVANCED_FACE ( 'NONE', ( #24, #94 ), #218, .T. ) ;
#237 = CONICAL_SURFACE ( 'NONE', #253, 1.499999999999996447, 0.1745329251994262865 ) ;
#238 = EDGE_LOOP ( 'NONE', ( #57 ) ) ;
#239 = SECURITY_CLASSIFICATION_LEVEL ( 'unclassified' ) ;
#240 = CYLINDRICAL_SURFACE ( 'NONE', #296, 0.7984999999999995435 ) ;
#241 = EDGE_LOOP ( 'NONE', ( #222 ) ) ;
#242 = PRODUCT_DEFINITION_SHAPE ( 'NONE', 'NONE',  #302 ) ;
#243 = SECURITY_CLASSIFICATION ( '', '', #239 ) ;
#244 = APPROVAL_ROLE ( '' ) ;
#245 = EDGE_LOOP ( 'NONE', ( #285 ) ) ;
#246 = DIRECTION ( 'NONE',  ( -3.491481338843133355E-15, 1.224646799147353207E-16, -1.000000000000000000 ) ) ;
#247 = DIRECTION ( 'NONE',  ( 4.275831445896958607E-31, 1.000000000000000000, 1.224646799147353207E-16 ) ) ;
#248 = APPROVAL ( #8, 'UNSPECIFIED' ) ;
#249 = CC_DESIGN_APPROVAL ( #248, ( #302 ) ) ;
#250 = DIRECTION ( 'NONE',  ( -3.491481338843133355E-15, 1.224646799147353207E-16, -1.000000000000000000 ) ) ;
#251 = DIRECTION ( 'NONE',  ( 0.0000000000000000000, 1.000000000000000000, 0.0000000000000000000 ) ) ;
#252 = CARTESIAN_POINT ( 'NONE',  ( 1.745740669421566678E-13, -6.123233995736766085E-15, 50.00000000000000000 ) ) ;
#253 = AXIS2_PLACEMENT_3D ( 'NONE', #157, #223, #133 ) ;
#254 = FACE_OUTER_BOUND ( 'NONE', #213, .T. ) ;
#255 = VERTEX_POINT ( 'NONE', #52 ) ;
#256 = DIRECTION ( 'NONE',  ( -3.491481338843133355E-15, 1.224646799147353207E-16, -1.000000000000000000 ) ) ;
#257 = AXIS2_PLACEMENT_3D ( 'NONE', #225, #153, #180 ) ;
#258 = FACE_OUTER_BOUND ( 'NONE', #132, .T. ) ;
#259 = PERSON_AND_ORGANIZATION ( #289, #194 ) ;
#260 = CC_DESIGN_DATE_AND_TIME_ASSIGNMENT ( #212, #54, ( #243 ) ) ;
#261 = COORDINATED_UNIVERSAL_TIME_OFFSET ( 1, 0, .AHEAD. ) ;
#262 = ORIENTED_EDGE ( 'NONE', *, *, #173, .F. ) ;
#263 = AXIS2_PLACEMENT_3D ( 'NONE', #160, #95, #68 ) ;
#264 = CC_DESIGN_APPROVAL ( #27, ( #243 ) ) ;
#265 = ORIENTED_EDGE ( 'NONE', *, *, #123, .T. ) ;
#266 = DATE_AND_TIME ( #286, #119 ) ;
#267 = EDGE_LOOP ( 'NONE', ( #9 ) ) ;
#268 = DATE_AND_TIME ( #75, #179 ) ;
#269 = ORIENTED_EDGE ( 'NONE', *, *, #111, .F. ) ;
#270 = AXIS2_PLACEMENT_3D ( 'NONE', #88, #18, #182 ) ;
#271 = EDGE_LOOP ( 'NONE', ( #106 ) ) ;
#272 = MANIFOLD_SOLID_BREP ( 'Corps-Déplacer/Copier1[2]', #50 ) ;
#273 = DIRECTION ( 'NONE',  ( 0.0000000000000000000, 1.000000000000000000, 0.0000000000000000000 ) ) ;
#274 = APPROVAL ( #3, 'UNSPECIFIED' ) ;
#275 = CARTESIAN_POINT ( 'NONE',  ( 2.444036937190193349E-14, 5.987790932277452869E-33, 7.000000000000000000 ) ) ;
#276 = AXIS2_PLACEMENT_3D ( 'NONE', #61, #154, #135 ) ;
#277 = CARTESIAN_POINT ( 'NONE',  ( 2.444036937190193349E-14, 5.987790932277452869E-33, 7.000000000000000000 ) ) ;
#278 = FACE_BOUND ( 'NONE', #37, .T. ) ;
#279 = AXIS2_PLACEMENT_3D ( 'NONE', #6, #76, #170 ) ;
#280 = PERSON_AND_ORGANIZATION ( #289, #194 ) ;
#281 =( NAMED_UNIT ( * ) PLANE_ANGLE_UNIT ( ) SI_UNIT ( $, .RADIAN. ) );
#282 = CARTESIAN_POINT ( 'NONE',  ( 2.444036937190193349E-14, 0.7984999999999990994, 7.000000000000000000 ) ) ;
#283 = AXIS2_PLACEMENT_3D ( 'NONE', #17, #109, #273 ) ;
#284 = ADVANCED_FACE ( 'NONE', ( #258, #191 ), #28, .T. ) ;
#285 = ORIENTED_EDGE ( 'NONE', *, *, #123, .F. ) ;
#286 = CALENDAR_DATE ( 2021, 30, 11 ) ;
#287 = EDGE_LOOP ( 'NONE', ( #40 ) ) ;
#288 = PRODUCT_DEFINITION_FORMATION_WITH_SPECIFIED_SOURCE ( 'ANY', '', #164, .NOT_KNOWN. ) ;
#289 = PERSON ( 'UNSPECIFIED', 'UNSPECIFIED', 'UNSPECIFIED', ('UNSPECIFIED'), ('UNSPECIFIED'), ('UNSPECIFIED') ) ;
#290 = ORIENTED_EDGE ( 'NONE', *, *, #89, .T. ) ;
#291 = DATE_AND_TIME ( #99, #139 ) ;
#292 = EDGE_LOOP ( 'NONE', ( #33 ) ) ;
#293 = CARTESIAN_POINT ( 'NONE',  ( 2.444036937190193349E-14, -8.572527594031473190E-16, 7.000000000000000000 ) ) ;
#294 = DIRECTION ( 'NONE',  ( -3.491481338843133355E-15, 1.224646799147353207E-16, -1.000000000000000000 ) ) ;
#295 = CARTESIAN_POINT ( 'NONE',  ( 5.237222008264700033E-14, -1.836970198721029589E-15, 15.00000000000000000 ) ) ;
#296 = AXIS2_PLACEMENT_3D ( 'NONE', #197, #246, #100 ) ;
#297 = CC_DESIGN_APPROVAL ( #274, ( #288 ) ) ;
#298 = DIRECTION ( 'NONE',  ( -3.491481338843133355E-15, 1.224646799147353207E-16, -1.000000000000000000 ) ) ;
#299 = FACE_OUTER_BOUND ( 'NONE', #151, .T. ) ;
#300 = CARTESIAN_POINT ( 'NONE',  ( 0.0000000000000000000, 0.0000000000000000000, 0.0000000000000000000 ) ) ;
#301 =( GEOMETRIC_REPRESENTATION_CONTEXT ( 3 ) GLOBAL_UNCERTAINTY_ASSIGNED_CONTEXT ( ( #25 ) ) GLOBAL_UNIT_ASSIGNED_CONTEXT ( ( #72, #281, #117 ) ) REPRESENTATION_CONTEXT ( 'NONE', 'WORKASPACE' ) );
#302 = PRODUCT_DEFINITION ( 'UNKNOWN', '', #288, #2 ) ;
#303 = PERSON_AND_ORGANIZATION ( #289, #194 ) ;
ENDSEC;
END-ISO-10303-21;
