ISO-10303-21;
HEADER;
FILE_DESCRIPTION (( 'STEP AP203' ),
    '1' );
FILE_NAME ('959573.step',
    '2021-11-30T08:32:47',
    ( '' ),
    ( '' ),
    'SwSTEP 2.0',
    'SolidWorks 2019',
    '' );
FILE_SCHEMA (( 'CONFIG_CONTROL_DESIGN' ));
ENDSEC;

DATA;
#1 = PLANE ( 'NONE',  #159 ) ;
#2 = CIRCLE ( 'NONE', #155, 0.8635000000000000453 ) ;
#3 = ADVANCED_FACE ( 'NONE', ( #33 ), #126, .F. ) ;
#4 = COORDINATED_UNIVERSAL_TIME_OFFSET ( 1, 0, .AHEAD. ) ;
#5 = VERTEX_POINT ( 'NONE', #170 ) ;
#6 = AXIS2_PLACEMENT_3D ( 'NONE', #162, #140, #111 ) ;
#7 = DATE_TIME_ROLE ( 'classification_date' ) ;
#8 = CC_DESIGN_PERSON_AND_ORGANIZATION_ASSIGNMENT ( #239, #261, ( #231 ) ) ;
#9 = CARTESIAN_POINT ( 'NONE',  ( 5.935518276033326704E-14, -2.168404344971008868E-15, 17.00000000000000000 ) ) ;
#10 = PRODUCT ( '959573', '959573', '', ( #265 ) ) ;
#11 = DIRECTION ( 'NONE',  ( -3.491481338843133355E-15, 1.224646799147353207E-16, -1.000000000000000000 ) ) ;
#12 = AXIS2_PLACEMENT_3D ( 'NONE', #254, #46, #163 ) ;
#13 = FACE_BOUND ( 'NONE', #117, .T. ) ;
#14 = CC_DESIGN_PERSON_AND_ORGANIZATION_ASSIGNMENT ( #81, #171, ( #231 ) ) ;
#15 =( GEOMETRIC_REPRESENTATION_CONTEXT ( 3 ) GLOBAL_UNCERTAINTY_ASSIGNED_CONTEXT ( ( #62 ) ) GLOBAL_UNIT_ASSIGNED_CONTEXT ( ( #132, #151, #197 ) ) REPRESENTATION_CONTEXT ( 'NONE', 'WORKASPACE' ) );
#16 = APPROVAL_PERSON_ORGANIZATION ( #214, #127, #263 ) ;
#17 = FACE_BOUND ( 'NONE', #90, .T. ) ;
#18 = CARTESIAN_POINT ( 'NONE',  ( 2.444036937190193349E-14, -8.572527594031473190E-16, 7.000000000000000000 ) ) ;
#19 = ORIENTED_EDGE ( 'NONE', *, *, #95, .F. ) ;
#20 = DIRECTION ( 'NONE',  ( 4.275831445896958607E-31, 1.000000000000000000, 1.224646799147353207E-16 ) ) ;
#21 = PRODUCT_DEFINITION ( 'UNKNOWN', '', #231, #201 ) ;
#22 = AXIS2_PLACEMENT_3D ( 'NONE', #198, #11, #105 ) ;
#23 = LOCAL_TIME ( 9, 32, 47.00000000000000000, #173 ) ;
#24 = DIRECTION ( 'NONE',  ( 0.0000000000000000000, 1.000000000000000000, 0.0000000000000000000 ) ) ;
#25 = DIRECTION ( 'NONE',  ( 0.0000000000000000000, 1.000000000000000000, 0.0000000000000000000 ) ) ;
#26 = VERTEX_POINT ( 'NONE', #187 ) ;
#27 = ORIENTED_EDGE ( 'NONE', *, *, #134, .F. ) ;
#28 = CARTESIAN_POINT ( 'NONE',  ( 6.056776150402963091E-14, 0.7903844939755790833, 17.34729635533384595 ) ) ;
#29 = COORDINATED_UNIVERSAL_TIME_OFFSET ( 1, 0, .AHEAD. ) ;
#30 = VERTEX_POINT ( 'NONE', #286 ) ;
#31 = CALENDAR_DATE ( 2021, 30, 11 ) ;
#32 = DIRECTION ( 'NONE',  ( 4.275831445896958607E-31, 1.000000000000000000, 1.224646799147353207E-16 ) ) ;
#33 = FACE_OUTER_BOUND ( 'NONE', #253, .T. ) ;
#34 = ADVANCED_FACE ( 'NONE', ( #135, #202 ), #224, .T. ) ;
#35 = CALENDAR_DATE ( 2021, 30, 11 ) ;
#36 = APPLICATION_CONTEXT ( 'configuration controlled 3d designs of mechanical parts and assemblies' ) ;
#37 = AXIS2_PLACEMENT_3D ( 'NONE', #142, #41, #71 ) ;
#38 = EDGE_CURVE ( 'NONE', #30, #30, #2, .T. ) ;
#39 = DIRECTION ( 'NONE',  ( 4.275831445896958607E-31, 1.000000000000000000, 1.224646799147353207E-16 ) ) ;
#40 = EDGE_LOOP ( 'NONE', ( #248 ) ) ;
#41 = DIRECTION ( 'NONE',  ( -3.491481338843133355E-15, 1.224646799147353207E-16, -1.000000000000000000 ) ) ;
#42 = ORIENTED_EDGE ( 'NONE', *, *, #275, .F. ) ;
#43 = CIRCLE ( 'NONE', #60, 0.7903844939755811927 ) ;
#44 = FACE_BOUND ( 'NONE', #161, .T. ) ;
#45 = EDGE_LOOP ( 'NONE', ( #64 ) ) ;
#46 = DIRECTION ( 'NONE',  ( -3.491481338843133355E-15, 1.224646799147353207E-16, -1.000000000000000000 ) ) ;
#47 = DIRECTION ( 'NONE',  ( 3.491481338843133355E-15, -1.224646799147353207E-16, 1.000000000000000000 ) ) ;
#48 = CIRCLE ( 'NONE', #85, 0.7599999999999996758 ) ;
#49 = DIRECTION ( 'NONE',  ( -3.491481338843133355E-15, 1.224646799147353207E-16, -1.000000000000000000 ) ) ;
#50 = VERTEX_POINT ( 'NONE', #221 ) ;
#51 = SECURITY_CLASSIFICATION_LEVEL ( 'unclassified' ) ;
#52 = APPROVAL_STATUS ( 'not_yet_approved' ) ;
#53 = CIRCLE ( 'NONE', #230, 1.200000000000001732 ) ;
#54 = ADVANCED_FACE ( 'NONE', ( #82, #125 ), #174, .F. ) ;
#55 = SHAPE_DEFINITION_REPRESENTATION ( #270, #152 ) ;
#56 = PERSON_AND_ORGANIZATION ( #175, #289 ) ;
#57 = DIRECTION ( 'NONE',  ( -3.491481338843133355E-15, 1.224646799147353207E-16, -1.000000000000000000 ) ) ;
#58 = CALENDAR_DATE ( 2021, 30, 11 ) ;
#59 = AXIS2_PLACEMENT_3D ( 'NONE', #246, #296, #84 ) ;
#60 = AXIS2_PLACEMENT_3D ( 'NONE', #192, #199, #297 ) ;
#61 = DIRECTION ( 'NONE',  ( 0.0000000000000000000, 0.0000000000000000000, 1.000000000000000000 ) ) ;
#62 = UNCERTAINTY_MEASURE_WITH_UNIT (LENGTH_MEASURE( 1.000000000000000082E-05 ), #132, 'distance_accuracy_value', 'NONE');
#63 = FACE_OUTER_BOUND ( 'NONE', #113, .T. ) ;
#64 = ORIENTED_EDGE ( 'NONE', *, *, #275, .T. ) ;
#65 = ADVANCED_FACE ( 'NONE', ( #13, #106 ), #97, .T. ) ;
#66 = ORIENTED_EDGE ( 'NONE', *, *, #271, .T. ) ;
#67 = DIRECTION ( 'NONE',  ( -3.491481338843133355E-15, 1.224646799147353207E-16, -1.000000000000000000 ) ) ;
#68 = DIRECTION ( 'NONE',  ( 3.491481338843133355E-15, -1.224646799147353207E-16, 1.000000000000000000 ) ) ;
#69 = ORIENTED_EDGE ( 'NONE', *, *, #193, .F. ) ;
#70 = DIRECTION ( 'NONE',  ( 4.460752621626491206E-31, 1.000000000000000000, 1.255590240284314308E-16 ) ) ;
#71 = DIRECTION ( 'NONE',  ( 4.275831445896958607E-31, 1.000000000000000000, 1.224646799147353207E-16 ) ) ;
#72 = ADVANCED_FACE ( 'NONE', ( #136, #177 ), #154, .T. ) ;
#73 = EDGE_LOOP ( 'NONE', ( #160 ) ) ;
#74 = CONICAL_SURFACE ( 'NONE', #294, 1.499999999999996669, 0.1745329251994262310 ) ;
#75 = VERTEX_POINT ( 'NONE', #129 ) ;
#76 = VERTEX_POINT ( 'NONE', #260 ) ;
#77 = CIRCLE ( 'NONE', #281, 0.8634999999999991571 ) ;
#78 = ADVANCED_FACE ( 'NONE', ( #222, #225 ), #109, .T. ) ;
#79 = CIRCLE ( 'NONE', #244, 0.8635000000000000453 ) ;
#80 = DIRECTION ( 'NONE',  ( -4.275831445896958607E-31, -1.000000000000000000, -1.224646799147353207E-16 ) ) ;
#81 = PERSON_AND_ORGANIZATION ( #175, #289 ) ;
#82 = FACE_OUTER_BOUND ( 'NONE', #226, .T. ) ;
#83 = AXIS2_PLACEMENT_3D ( 'NONE', #278, #276, #25 ) ;
#84 = DIRECTION ( 'NONE',  ( -4.460752621626491206E-31, -1.000000000000000000, -1.255590240284314308E-16 ) ) ;
#85 = AXIS2_PLACEMENT_3D ( 'NONE', #211, #49, #146 ) ;
#86 = CC_DESIGN_APPROVAL ( #172, ( #115 ) ) ;
#87 = COORDINATED_UNIVERSAL_TIME_OFFSET ( 1, 0, .AHEAD. ) ;
#88 = PLANE ( 'NONE',  #240 ) ;
#89 = EDGE_LOOP ( 'NONE', ( #215 ) ) ;
#90 = EDGE_LOOP ( 'NONE', ( #150 ) ) ;
#91 = ORIENTED_EDGE ( 'NONE', *, *, #271, .F. ) ;
#92 = LOCAL_TIME ( 9, 32, 47.00000000000000000, #29 ) ;
#93 = FACE_OUTER_BOUND ( 'NONE', #73, .T. ) ;
#94 = FACE_OUTER_BOUND ( 'NONE', #228, .T. ) ;
#95 = EDGE_CURVE ( 'NONE', #149, #149, #43, .T. ) ;
#96 = VERTEX_POINT ( 'NONE', #259 ) ;
#97 = CONICAL_SURFACE ( 'NONE', #59, 0.8634999999999991571, 0.5235987755982923764 ) ;
#98 = PERSON_AND_ORGANIZATION ( #175, #289 ) ;
#99 = CARTESIAN_POINT ( 'NONE',  ( -1.537508672228755125E-31, 5.392854468843081918E-33, -4.403599856381282954E-17 ) ) ;
#100 = PERSON_AND_ORGANIZATION ( #175, #289 ) ;
#101 = DATE_AND_TIME ( #247, #213 ) ;
#102 = CIRCLE ( 'NONE', #223, 1.499999999999996669 ) ;
#103 = PERSON_AND_ORGANIZATION ( #175, #289 ) ;
#104 = DIRECTION ( 'NONE',  ( -3.491481338843133355E-15, 1.224646799147353207E-16, -1.000000000000000000 ) ) ;
#105 = DIRECTION ( 'NONE',  ( 4.275831445896958607E-31, 1.000000000000000000, 1.224646799147353454E-16 ) ) ;
#106 = FACE_OUTER_BOUND ( 'NONE', #40, .T. ) ;
#107 = APPROVAL ( #291, 'UNSPECIFIED' ) ;
#108 = APPLICATION_CONTEXT ( 'configuration controlled 3d designs of mechanical parts and assemblies' ) ;
#109 = CYLINDRICAL_SURFACE ( 'NONE', #22, 1.499999999999999112 ) ;
#110 = APPLICATION_PROTOCOL_DEFINITION ( 'international standard', 'config_control_design', 1994, #36 ) ;
#111 = DIRECTION ( 'NONE',  ( 0.0000000000000000000, 1.000000000000000000, 0.0000000000000000000 ) ) ;
#112 = ADVANCED_FACE ( 'NONE', ( #195, #93 ), #236, .T. ) ;
#113 = EDGE_LOOP ( 'NONE', ( #300 ) ) ;
#114 = DIRECTION ( 'NONE',  ( -3.491481338843133355E-15, 1.224646799147353207E-16, -1.000000000000000000 ) ) ;
#115 = SECURITY_CLASSIFICATION ( '', '', #51 ) ;
#116 = FACE_OUTER_BOUND ( 'NONE', #185, .T. ) ;
#117 = EDGE_LOOP ( 'NONE', ( #141 ) ) ;
#118 = PRODUCT_RELATED_PRODUCT_CATEGORY ( 'detail', '', ( #10 ) ) ;
#119 = CARTESIAN_POINT ( 'NONE',  ( 1.745740669421566678E-13, -6.123233995736766085E-15, 50.00000000000000000 ) ) ;
#120 = LOCAL_TIME ( 9, 32, 47.00000000000000000, #237 ) ;
#121 = PERSON_AND_ORGANIZATION_ROLE ( 'classification_officer' ) ;
#122 = EDGE_LOOP ( 'NONE', ( #282 ) ) ;
#123 = VERTEX_POINT ( 'NONE', #165 ) ;
#124 = DATE_AND_TIME ( #31, #120 ) ;
#125 = FACE_OUTER_BOUND ( 'NONE', #122, .T. ) ;
#126 = PLANE ( 'NONE',  #269 ) ;
#127 = APPROVAL ( #52, 'UNSPECIFIED' ) ;
#128 = CLOSED_SHELL ( 'NONE', ( #3, #112, #34, #54, #241, #78, #157, #147 ) ) ;
#129 = CARTESIAN_POINT ( 'NONE',  ( 2.506627765991136237E-14, 0.7599999999999993427, 7.179267258583378108 ) ) ;
#130 = DATE_AND_TIME ( #35, #220 ) ;
#131 = CARTESIAN_POINT ( 'NONE',  ( 0.0000000000000000000, 0.0000000000000000000, 0.0000000000000000000 ) ) ;
#132 =( LENGTH_UNIT ( ) NAMED_UNIT ( * ) SI_UNIT ( .MILLI., .METRE. ) );
#133 = DIRECTION ( 'NONE',  ( 4.275831445896958607E-31, 1.000000000000000000, 1.224646799147353207E-16 ) ) ;
#134 = EDGE_CURVE ( 'NONE', #76, #76, #77, .T. ) ;
#135 = FACE_OUTER_BOUND ( 'NONE', #45, .T. ) ;
#136 = FACE_OUTER_BOUND ( 'NONE', #203, .T. ) ;
#137 = ORIENTED_EDGE ( 'NONE', *, *, #193, .T. ) ;
#138 = FACE_OUTER_BOUND ( 'NONE', #204, .T. ) ;
#139 = ORIENTED_EDGE ( 'NONE', *, *, #145, .T. ) ;
#140 = DIRECTION ( 'NONE',  ( -3.491481338843133355E-15, 1.224646799147353207E-16, -1.000000000000000000 ) ) ;
#141 = ORIENTED_EDGE ( 'NONE', *, *, #245, .F. ) ;
#142 = CARTESIAN_POINT ( 'NONE',  ( -3.075017344457510250E-31, 1.078570893768616384E-32, -8.807199712762565908E-17 ) ) ;
#143 = DIRECTION ( 'NONE',  ( -4.275831445896958607E-31, -1.000000000000000000, -1.224646799147353207E-16 ) ) ;
#144 = FACE_OUTER_BOUND ( 'NONE', #178, .T. ) ;
#145 = EDGE_CURVE ( 'NONE', #75, #75, #168, .T. ) ;
#146 = DIRECTION ( 'NONE',  ( 0.0000000000000000000, 1.000000000000000000, 0.0000000000000000000 ) ) ;
#147 = ADVANCED_FACE ( 'NONE', ( #63 ), #180, .F. ) ;
#148 = DATE_AND_TIME ( #166, #23 ) ;
#149 = VERTEX_POINT ( 'NONE', #28 ) ;
#150 = ORIENTED_EDGE ( 'NONE', *, *, #182, .T. ) ;
#151 =( NAMED_UNIT ( * ) PLANE_ANGLE_UNIT ( ) SI_UNIT ( $, .RADIAN. ) );
#152 = ADVANCED_BREP_SHAPE_REPRESENTATION ( '959573', ( #158, #267, #252 ), #15 ) ;
#153 = APPROVAL_ROLE ( '' ) ;
#154 = CYLINDRICAL_SURFACE ( 'NONE', #200, 0.8634999999999996012 ) ;
#155 = AXIS2_PLACEMENT_3D ( 'NONE', #268, #57, #293 ) ;
#156 = CC_DESIGN_APPROVAL ( #107, ( #21 ) ) ;
#157 = ADVANCED_FACE ( 'NONE', ( #94, #17 ), #181, .T. ) ;
#158 = MANIFOLD_SOLID_BREP ( 'Corps-Déplacer/Copier1[1]', #128 ) ;
#159 = AXIS2_PLACEMENT_3D ( 'NONE', #183, #68, #299 ) ;
#160 = ORIENTED_EDGE ( 'NONE', *, *, #38, .F. ) ;
#161 = EDGE_LOOP ( 'NONE', ( #19 ) ) ;
#162 = CARTESIAN_POINT ( 'NONE',  ( 1.735266225405037467E-13, -6.086494591762345225E-15, 49.70000000000000284 ) ) ;
#163 = DIRECTION ( 'NONE',  ( 0.0000000000000000000, 1.000000000000000000, 0.0000000000000000000 ) ) ;
#164 = DIRECTION ( 'NONE',  ( 0.0000000000000000000, -1.000000000000000000, 0.0000000000000000000 ) ) ;
#165 = CARTESIAN_POINT ( 'NONE',  ( 1.735266225405037467E-13, 1.499999999999995559, 49.70000000000000284 ) ) ;
#166 = CALENDAR_DATE ( 2021, 30, 11 ) ;
#167 = PERSON_AND_ORGANIZATION_ROLE ( 'design_owner' ) ;
#168 = CIRCLE ( 'NONE', #12, 0.7600000000000002309 ) ;
#169 = APPROVAL_DATE_TIME ( #101, #172 ) ;
#170 = CARTESIAN_POINT ( 'NONE',  ( 5.935518276033326704E-14, 0.7599999999999976774, 17.00000000000000000 ) ) ;
#171 = PERSON_AND_ORGANIZATION_ROLE ( 'creator' ) ;
#172 = APPROVAL ( #191, 'UNSPECIFIED' ) ;
#173 = COORDINATED_UNIVERSAL_TIME_OFFSET ( 1, 0, .AHEAD. ) ;
#174 = TOROIDAL_SURFACE ( 'NONE', #272, 2.760000000000000231, 2.000000000000000444 ) ;
#175 = PERSON ( 'UNSPECIFIED', 'UNSPECIFIED', 'UNSPECIFIED', ('UNSPECIFIED'), ('UNSPECIFIED'), ('UNSPECIFIED') ) ;
#176 = CARTESIAN_POINT ( 'NONE',  ( 0.0000000000000000000, 0.0000000000000000000, 0.0000000000000000000 ) ) ;
#177 = FACE_OUTER_BOUND ( 'NONE', #280, .T. ) ;
#178 = EDGE_LOOP ( 'NONE', ( #137 ) ) ;
#179 = CARTESIAN_POINT ( 'NONE',  ( 7.461898206643745712E-14, -2.617281568332106177E-15, 21.37172587356909403 ) ) ;
#180 = PLANE ( 'NONE',  #212 ) ;
#181 = CONICAL_SURFACE ( 'NONE', #83, 1.200000000000001732, 0.7853981633974453924 ) ;
#182 = EDGE_CURVE ( 'NONE', #216, #216, #53, .T. ) ;
#183 = CARTESIAN_POINT ( 'NONE',  ( 2.444036937190193349E-14, 6.475212861642556729E-33, 7.000000000000000000 ) ) ;
#184 = DIRECTION ( 'NONE',  ( -3.491481338843133355E-15, 1.224646799147353207E-16, -1.000000000000000000 ) ) ;
#185 = EDGE_LOOP ( 'NONE', ( #91 ) ) ;
#186 = APPROVAL_ROLE ( '' ) ;
#187 = CARTESIAN_POINT ( 'NONE',  ( 0.0000000000000000000, 0.7191624327025948338, 0.0000000000000000000 ) ) ;
#188 = DATE_TIME_ROLE ( 'creation_date' ) ;
#189 = ORIENTED_EDGE ( 'NONE', *, *, #266, .F. ) ;
#190 = CC_DESIGN_DATE_AND_TIME_ASSIGNMENT ( #148, #188, ( #21 ) ) ;
#191 = APPROVAL_STATUS ( 'not_yet_approved' ) ;
#192 = CARTESIAN_POINT ( 'NONE',  ( 6.056776150402963091E-14, -2.124431095542013992E-15, 17.34729635533384595 ) ) ;
#193 = EDGE_CURVE ( 'NONE', #50, #50, #102, .T. ) ;
#194 = CLOSED_SHELL ( 'NONE', ( #285, #65, #72, #250 ) ) ;
#195 = FACE_BOUND ( 'NONE', #301, .T. ) ;
#196 = CC_DESIGN_APPROVAL ( #127, ( #231 ) ) ;
#197 =( NAMED_UNIT ( * ) SI_UNIT ( $, .STERADIAN. ) SOLID_ANGLE_UNIT ( ) );
#198 = CARTESIAN_POINT ( 'NONE',  ( 0.0000000000000000000, 0.0000000000000000000, 0.0000000000000000000 ) ) ;
#199 = DIRECTION ( 'NONE',  ( -3.491481338843133355E-15, 1.224646799147353207E-16, -1.000000000000000000 ) ) ;
#200 = AXIS2_PLACEMENT_3D ( 'NONE', #273, #104, #39 ) ;
#201 = DESIGN_CONTEXT ( 'detailed design', #108, 'design' ) ;
#202 = FACE_OUTER_BOUND ( 'NONE', #89, .T. ) ;
#203 = EDGE_LOOP ( 'NONE', ( #27 ) ) ;
#204 = EDGE_LOOP ( 'NONE', ( #238 ) ) ;
#205 = CARTESIAN_POINT ( 'NONE',  ( 7.461898206643745712E-14, -2.617281568332106177E-15, 21.37172587356909403 ) ) ;
#206 = CIRCLE ( 'NONE', #6, 1.500000000000001554 ) ;
#207 = CC_DESIGN_SECURITY_CLASSIFICATION ( #115, ( #231 ) ) ;
#208 = DIRECTION ( 'NONE',  ( -3.491481338843133355E-15, 1.224646799147353207E-16, -1.000000000000000000 ) ) ;
#209 = DIRECTION ( 'NONE',  ( 1.000000000000000000, 0.0000000000000000000, 0.0000000000000000000 ) ) ;
#210 = EDGE_LOOP ( 'NONE', ( #298 ) ) ;
#211 = CARTESIAN_POINT ( 'NONE',  ( 5.935518276033326704E-14, -2.081899558550500280E-15, 17.00000000000000000 ) ) ;
#212 = AXIS2_PLACEMENT_3D ( 'NONE', #233, #249, #20 ) ;
#213 = LOCAL_TIME ( 9, 32, 47.00000000000000000, #87 ) ;
#214 = PERSON_AND_ORGANIZATION ( #175, #289 ) ;
#215 = ORIENTED_EDGE ( 'NONE', *, *, #145, .F. ) ;
#216 = VERTEX_POINT ( 'NONE', #235 ) ;
#217 = DATE_AND_TIME ( #58, #92 ) ;
#218 = PERSON_AND_ORGANIZATION ( #175, #289 ) ;
#219 = CARTESIAN_POINT ( 'NONE',  ( 2.444036937190193349E-14, 6.475212861642556729E-33, 7.000000000000000000 ) ) ;
#220 = LOCAL_TIME ( 9, 32, 47.00000000000000000, #4 ) ;
#221 = CARTESIAN_POINT ( 'NONE',  ( 7.461898206643745712E-14, 1.499999999999994005, 21.37172587356909403 ) ) ;
#222 = FACE_OUTER_BOUND ( 'NONE', #284, .T. ) ;
#223 = AXIS2_PLACEMENT_3D ( 'NONE', #179, #114, #274 ) ;
#224 = CYLINDRICAL_SURFACE ( 'NONE', #288, 0.7600000000000000089 ) ;
#225 = FACE_OUTER_BOUND ( 'NONE', #210, .T. ) ;
#226 = EDGE_LOOP ( 'NONE', ( #42 ) ) ;
#227 = DIRECTION ( 'NONE',  ( 0.0000000000000000000, 1.000000000000000000, 0.0000000000000000000 ) ) ;
#228 = EDGE_LOOP ( 'NONE', ( #189 ) ) ;
#229 = ORIENTED_EDGE ( 'NONE', *, *, #38, .T. ) ;
#230 = AXIS2_PLACEMENT_3D ( 'NONE', #119, #184, #24 ) ;
#231 = PRODUCT_DEFINITION_FORMATION_WITH_SPECIFIED_SOURCE ( 'ANY', '', #10, .NOT_KNOWN. ) ;
#232 = CC_DESIGN_PERSON_AND_ORGANIZATION_ASSIGNMENT ( #98, #167, ( #10 ) ) ;
#233 = CARTESIAN_POINT ( 'NONE',  ( 1.745740669421566678E-13, 8.998558695971067645E-33, 50.00000000000000000 ) ) ;
#234 = APPLICATION_PROTOCOL_DEFINITION ( 'international standard', 'config_control_design', 1994, #108 ) ;
#235 = CARTESIAN_POINT ( 'NONE',  ( 1.745740669421566678E-13, 1.199999999999995515, 50.00000000000000000 ) ) ;
#236 = CONICAL_SURFACE ( 'NONE', #243, 0.8635000000000000453, 0.5235987755982994818 ) ;
#237 = COORDINATED_UNIVERSAL_TIME_OFFSET ( 1, 0, .AHEAD. ) ;
#238 = ORIENTED_EDGE ( 'NONE', *, *, #245, .T. ) ;
#239 = PERSON_AND_ORGANIZATION ( #175, #289 ) ;
#240 = AXIS2_PLACEMENT_3D ( 'NONE', #99, #262, #80 ) ;
#241 = ADVANCED_FACE ( 'NONE', ( #44, #144 ), #74, .T. ) ;
#242 = DIRECTION ( 'NONE',  ( -3.491481338843133355E-15, 1.224646799147353207E-16, -1.000000000000000000 ) ) ;
#243 = AXIS2_PLACEMENT_3D ( 'NONE', #18, #277, #227 ) ;
#244 = AXIS2_PLACEMENT_3D ( 'NONE', #255, #208, #257 ) ;
#245 = EDGE_CURVE ( 'NONE', #26, #26, #251, .T. ) ;
#246 = CARTESIAN_POINT ( 'NONE',  ( 8.728703347107829444E-16, -3.061616997868381785E-17, 0.2499999999999998890 ) ) ;
#247 = CALENDAR_DATE ( 2021, 30, 11 ) ;
#248 = ORIENTED_EDGE ( 'NONE', *, *, #134, .T. ) ;
#249 = DIRECTION ( 'NONE',  ( -3.491481338843133355E-15, 1.224646799147353207E-16, -1.000000000000000000 ) ) ;
#250 = ADVANCED_FACE ( 'NONE', ( #116 ), #1, .T. ) ;
#251 = CIRCLE ( 'NONE', #37, 0.7191624327025948338 ) ;
#252 = AXIS2_PLACEMENT_3D ( 'NONE', #176, #61, #209 ) ;
#253 = EDGE_LOOP ( 'NONE', ( #229 ) ) ;
#254 = CARTESIAN_POINT ( 'NONE',  ( 2.506627765991136237E-14, -8.792066668447528551E-16, 7.179267258583378108 ) ) ;
#255 = CARTESIAN_POINT ( 'NONE',  ( 2.444036937190193349E-14, -8.572527594031473190E-16, 7.000000000000000000 ) ) ;
#256 = CC_DESIGN_PERSON_AND_ORGANIZATION_ASSIGNMENT ( #218, #290, ( #21 ) ) ;
#257 = DIRECTION ( 'NONE',  ( 0.0000000000000000000, 1.000000000000000000, 0.0000000000000000000 ) ) ;
#258 = CC_DESIGN_PERSON_AND_ORGANIZATION_ASSIGNMENT ( #56, #121, ( #115 ) ) ;
#259 = CARTESIAN_POINT ( 'NONE',  ( 2.444036937190193349E-14, 0.8634999999999991571, 7.000000000000000000 ) ) ;
#260 = CARTESIAN_POINT ( 'NONE',  ( 8.728703347107833388E-16, 0.8634999999999991571, 0.2500000000000000000 ) ) ;
#261 = PERSON_AND_ORGANIZATION_ROLE ( 'design_supplier' ) ;
#262 = DIRECTION ( 'NONE',  ( 3.491481338843133355E-15, -1.224646799147353207E-16, 1.000000000000000000 ) ) ;
#263 = APPROVAL_ROLE ( '' ) ;
#264 = DIRECTION ( 'NONE',  ( -3.491481338843133355E-15, 1.224646799147353207E-16, -1.000000000000000000 ) ) ;
#265 = MECHANICAL_CONTEXT ( 'NONE', #36, 'mechanical' ) ;
#266 = EDGE_CURVE ( 'NONE', #123, #123, #206, .T. ) ;
#267 = MANIFOLD_SOLID_BREP ( 'Corps-Déplacer/Copier1[2]', #194 ) ;
#268 = CARTESIAN_POINT ( 'NONE',  ( 2.444036937190193349E-14, -8.572527594031473190E-16, 7.000000000000000000 ) ) ;
#269 = AXIS2_PLACEMENT_3D ( 'NONE', #219, #47, #143 ) ;
#270 = PRODUCT_DEFINITION_SHAPE ( 'NONE', 'NONE',  #21 ) ;
#271 = EDGE_CURVE ( 'NONE', #96, #96, #79, .T. ) ;
#272 = AXIS2_PLACEMENT_3D ( 'NONE', #9, #242, #133 ) ;
#273 = CARTESIAN_POINT ( 'NONE',  ( 0.0000000000000000000, 0.0000000000000000000, 0.0000000000000000000 ) ) ;
#274 = DIRECTION ( 'NONE',  ( 0.0000000000000000000, 1.000000000000000000, 0.0000000000000000000 ) ) ;
#275 = EDGE_CURVE ( 'NONE', #5, #5, #48, .T. ) ;
#276 = DIRECTION ( 'NONE',  ( -3.491481338843133355E-15, 1.224646799147353207E-16, -1.000000000000000000 ) ) ;
#277 = DIRECTION ( 'NONE',  ( -3.491481338843133355E-15, 1.224646799147353207E-16, -1.000000000000000000 ) ) ;
#278 = CARTESIAN_POINT ( 'NONE',  ( 1.745740669421566678E-13, -6.123233995736766085E-15, 50.00000000000000000 ) ) ;
#279 = DIRECTION ( 'NONE',  ( 3.491481338843133355E-15, -1.224646799147353207E-16, 1.000000000000000000 ) ) ;
#280 = EDGE_LOOP ( 'NONE', ( #66 ) ) ;
#281 = AXIS2_PLACEMENT_3D ( 'NONE', #303, #67, #70 ) ;
#282 = ORIENTED_EDGE ( 'NONE', *, *, #95, .T. ) ;
#283 = APPROVAL_DATE_TIME ( #217, #127 ) ;
#284 = EDGE_LOOP ( 'NONE', ( #69 ) ) ;
#285 = ADVANCED_FACE ( 'NONE', ( #138 ), #88, .F. ) ;
#286 = CARTESIAN_POINT ( 'NONE',  ( 2.444036937190193349E-14, 0.8634999999999991571, 7.000000000000000000 ) ) ;
#287 = APPROVAL_DATE_TIME ( #124, #107 ) ;
#288 = AXIS2_PLACEMENT_3D ( 'NONE', #131, #264, #32 ) ;
#289 = ORGANIZATION ( 'UNSPECIFIED', 'UNSPECIFIED', '' ) ;
#290 = PERSON_AND_ORGANIZATION_ROLE ( 'creator' ) ;
#291 = APPROVAL_STATUS ( 'not_yet_approved' ) ;
#292 = CC_DESIGN_DATE_AND_TIME_ASSIGNMENT ( #130, #7, ( #115 ) ) ;
#293 = DIRECTION ( 'NONE',  ( 0.0000000000000000000, 1.000000000000000000, 0.0000000000000000000 ) ) ;
#294 = AXIS2_PLACEMENT_3D ( 'NONE', #205, #279, #164 ) ;
#295 = APPROVAL_PERSON_ORGANIZATION ( #103, #172, #153 ) ;
#296 = DIRECTION ( 'NONE',  ( 3.491481338843133355E-15, -1.224646799147353207E-16, 1.000000000000000000 ) ) ;
#297 = DIRECTION ( 'NONE',  ( 0.0000000000000000000, 1.000000000000000000, 0.0000000000000000000 ) ) ;
#298 = ORIENTED_EDGE ( 'NONE', *, *, #266, .T. ) ;
#299 = DIRECTION ( 'NONE',  ( -4.275831445896958607E-31, -1.000000000000000000, -1.224646799147353207E-16 ) ) ;
#300 = ORIENTED_EDGE ( 'NONE', *, *, #182, .F. ) ;
#301 = EDGE_LOOP ( 'NONE', ( #139 ) ) ;
#302 = APPROVAL_PERSON_ORGANIZATION ( #100, #107, #186 ) ;
#303 = CARTESIAN_POINT ( 'NONE',  ( 8.728703347107829444E-16, -3.061616997868381785E-17, 0.2499999999999998890 ) ) ;
ENDSEC;
END-ISO-10303-21;
