ISO-10303-21;
HEADER;
FILE_DESCRIPTION (( 'STEP AP203' ),
    '1' );
FILE_NAME ('959571.step',
    '2021-11-26T14:47:26',
    ( '' ),
    ( '' ),
    'SwSTEP 2.0',
    'SolidWorks 2019',
    '' );
FILE_SCHEMA (( 'CONFIG_CONTROL_DESIGN' ));
ENDSEC;

DATA;
#1 = PERSON_AND_ORGANIZATION ( #176, #3 ) ;
#2 = COORDINATED_UNIVERSAL_TIME_OFFSET ( 1, 0, .AHEAD. ) ;
#3 = ORGANIZATION ( 'UNSPECIFIED', 'UNSPECIFIED', '' ) ;
#4 = CC_DESIGN_APPROVAL ( #244, ( #44 ) ) ;
#5 = EDGE_LOOP ( 'NONE', ( #197 ) ) ;
#6 = CARTESIAN_POINT ( 'NONE',  ( 1.396592535537253342E-14, 0.3684999999999990505, 4.000000000000000000 ) ) ;
#7 = AXIS2_PLACEMENT_3D ( 'NONE', #186, #82, #41 ) ;
#8 = CARTESIAN_POINT ( 'NONE',  ( 3.491481338843132369E-16, -1.224646799147352498E-17, 0.09999999999999996392 ) ) ;
#9 = DIRECTION ( 'NONE',  ( -3.491481338843133355E-15, 1.224646799147352961E-16, -1.000000000000000000 ) ) ;
#10 = CARTESIAN_POINT ( 'NONE',  ( -3.824107309916401367E-32, 1.341316284461895219E-33, -1.095267864494295231E-17 ) ) ;
#11 = DIRECTION ( 'NONE',  ( 0.0000000000000000000, 1.000000000000000000, 0.0000000000000000000 ) ) ;
#12 = DIRECTION ( 'NONE',  ( -3.491481338843133355E-15, 1.224646799147352961E-16, -1.000000000000000000 ) ) ;
#13 = FACE_OUTER_BOUND ( 'NONE', #202, .T. ) ;
#14 = DIRECTION ( 'NONE',  ( 4.275831445896957731E-31, 1.000000000000000000, 1.224646799147353207E-16 ) ) ;
#15 = EDGE_LOOP ( 'NONE', ( #270 ) ) ;
#16 = CALENDAR_DATE ( 2021, 26, 11 ) ;
#17 = ADVANCED_FACE ( 'NONE', ( #53, #274 ), #142, .T. ) ;
#18 = AXIS2_PLACEMENT_3D ( 'NONE', #222, #46, #77 ) ;
#19 = PERSON_AND_ORGANIZATION_ROLE ( 'creator' ) ;
#20 = COORDINATED_UNIVERSAL_TIME_OFFSET ( 1, 0, .AHEAD. ) ;
#21 = PERSON_AND_ORGANIZATION ( #176, #3 ) ;
#22 = AXIS2_PLACEMENT_3D ( 'NONE', #52, #140, #72 ) ;
#23 = CLOSED_SHELL ( 'NONE', ( #79, #152, #131, #272, #65, #17, #89 ) ) ;
#24 = AXIS2_PLACEMENT_3D ( 'NONE', #94, #96, #100 ) ;
#25 = PRODUCT_RELATED_PRODUCT_CATEGORY ( 'detail', '', ( #224 ) ) ;
#26 = ADVANCED_FACE ( 'NONE', ( #38, #123 ), #279, .T. ) ;
#27 = VERTEX_POINT ( 'NONE', #227 ) ;
#28 = VERTEX_POINT ( 'NONE', #217 ) ;
#29 = FACE_OUTER_BOUND ( 'NONE', #15, .T. ) ;
#30 = DIRECTION ( 'NONE',  ( -3.491481338843133355E-15, 1.224646799147352961E-16, -1.000000000000000000 ) ) ;
#31 = EDGE_LOOP ( 'NONE', ( #241 ) ) ;
#32 = VERTEX_POINT ( 'NONE', #130 ) ;
#33 = EDGE_LOOP ( 'NONE', ( #95 ) ) ;
#34 = DIRECTION ( 'NONE',  ( 0.0000000000000000000, 1.000000000000000000, 0.0000000000000000000 ) ) ;
#35 = CARTESIAN_POINT ( 'NONE',  ( 0.0000000000000000000, 0.0000000000000000000, 0.0000000000000000000 ) ) ;
#36 = AXIS2_PLACEMENT_3D ( 'NONE', #184, #181, #275 ) ;
#37 = COORDINATED_UNIVERSAL_TIME_OFFSET ( 1, 0, .AHEAD. ) ;
#38 = FACE_OUTER_BOUND ( 'NONE', #177, .T. ) ;
#39 = SHAPE_DEFINITION_REPRESENTATION ( #134, #250 ) ;
#40 = COORDINATED_UNIVERSAL_TIME_OFFSET ( 1, 0, .AHEAD. ) ;
#41 = DIRECTION ( 'NONE',  ( 1.000000000000000000, 0.0000000000000000000, 0.0000000000000000000 ) ) ;
#42 = CC_DESIGN_PERSON_AND_ORGANIZATION_ASSIGNMENT ( #234, #151, ( #97 ) ) ;
#43 = PERSON_AND_ORGANIZATION ( #176, #3 ) ;
#44 = PRODUCT_DEFINITION_FORMATION_WITH_SPECIFIED_SOURCE ( 'ANY', '', #224, .NOT_KNOWN. ) ;
#45 = CC_DESIGN_PERSON_AND_ORGANIZATION_ASSIGNMENT ( #148, #235, ( #224 ) ) ;
#46 = DIRECTION ( 'NONE',  ( 3.491481338843133355E-15, -1.224646799147352961E-16, 1.000000000000000000 ) ) ;
#47 = DIRECTION ( 'NONE',  ( 4.275831445896956855E-31, 1.000000000000000000, 1.224646799147352961E-16 ) ) ;
#48 = DIRECTION ( 'NONE',  ( -3.491481338843133355E-15, 1.224646799147352961E-16, -1.000000000000000000 ) ) ;
#49 = DIRECTION ( 'NONE',  ( -3.491481338843133355E-15, 1.224646799147352961E-16, -1.000000000000000000 ) ) ;
#50 = AXIS2_PLACEMENT_3D ( 'NONE', #254, #9, #55 ) ;
#51 = FACE_OUTER_BOUND ( 'NONE', #160, .T. ) ;
#52 = CARTESIAN_POINT ( 'NONE',  ( 5.094780988861143587E-14, -1.787008614639457113E-15, 14.59203270594952428 ) ) ;
#53 = FACE_OUTER_BOUND ( 'NONE', #58, .T. ) ;
#54 = VERTEX_POINT ( 'NONE', #199 ) ;
#55 = DIRECTION ( 'NONE',  ( 0.0000000000000000000, 1.000000000000000000, 0.0000000000000000000 ) ) ;
#56 = CALENDAR_DATE ( 2021, 26, 11 ) ;
#57 = EDGE_CURVE ( 'NONE', #138, #138, #277, .T. ) ;
#58 = EDGE_LOOP ( 'NONE', ( #219 ) ) ;
#59 = COORDINATED_UNIVERSAL_TIME_OFFSET ( 1, 0, .AHEAD. ) ;
#60 = FACE_OUTER_BOUND ( 'NONE', #231, .T. ) ;
#61 = DATE_AND_TIME ( #85, #198 ) ;
#62 = AXIS2_PLACEMENT_3D ( 'NONE', #283, #172, #159 ) ;
#63 = CALENDAR_DATE ( 2021, 26, 11 ) ;
#64 = CC_DESIGN_DATE_AND_TIME_ASSIGNMENT ( #258, #86, ( #106 ) ) ;
#65 = ADVANCED_FACE ( 'NONE', ( #13, #29 ), #182, .T. ) ;
#66 = TOROIDAL_SURFACE ( 'NONE', #264, 2.368500000000000050, 2.000000000000000000 ) ;
#67 = EDGE_LOOP ( 'NONE', ( #207 ) ) ;
#68 = APPROVAL_PERSON_ORGANIZATION ( #1, #244, #149 ) ;
#69 = CARTESIAN_POINT ( 'NONE',  ( 2.793185071074506684E-14, -8.673617379884035472E-16, 8.000000000000000000 ) ) ;
#70 = FACE_OUTER_BOUND ( 'NONE', #281, .T. ) ;
#71 = ORIENTED_EDGE ( 'NONE', *, *, #99, .T. ) ;
#72 = DIRECTION ( 'NONE',  ( 0.0000000000000000000, -1.000000000000000000, 0.0000000000000000000 ) ) ;
#73 = DIRECTION ( 'NONE',  ( 4.275831445896957731E-31, 1.000000000000000000, 1.224646799147353207E-16 ) ) ;
#74 = FACE_BOUND ( 'NONE', #153, .T. ) ;
#75 = LOCAL_TIME ( 15, 47, 26.00000000000000000, #59 ) ;
#76 = DIRECTION ( 'NONE',  ( -3.491481338843133355E-15, 1.224646799147352961E-16, -1.000000000000000000 ) ) ;
#77 = DIRECTION ( 'NONE',  ( -4.275831445896957731E-31, -1.000000000000000000, -1.224646799147352961E-16 ) ) ;
#78 = DIRECTION ( 'NONE',  ( 0.0000000000000000000, 1.000000000000000000, 0.0000000000000000000 ) ) ;
#79 = ADVANCED_FACE ( 'NONE', ( #209 ), #165, .F. ) ;
#80 = EDGE_CURVE ( 'NONE', #225, #225, #129, .T. ) ;
#81 = ORIENTED_EDGE ( 'NONE', *, *, #263, .F. ) ;
#82 = DIRECTION ( 'NONE',  ( 0.0000000000000000000, 0.0000000000000000000, 1.000000000000000000 ) ) ;
#83 = PLANE ( 'NONE',  #62 ) ;
#84 = CC_DESIGN_APPROVAL ( #212, ( #97 ) ) ;
#85 = CALENDAR_DATE ( 2021, 26, 11 ) ;
#86 = DATE_TIME_ROLE ( 'creation_date' ) ;
#87 = UNCERTAINTY_MEASURE_WITH_UNIT (LENGTH_MEASURE( 1.000000000000000082E-05 ), #246, 'distance_accuracy_value', 'NONE');
#88 = LOCAL_TIME ( 15, 47, 26.00000000000000000, #20 ) ;
#89 = ADVANCED_FACE ( 'NONE', ( #51 ), #133, .F. ) ;
#90 = ORIENTED_EDGE ( 'NONE', *, *, #112, .T. ) ;
#91 = CIRCLE ( 'NONE', #210, 1.500000000000003331 ) ;
#92 = VERTEX_POINT ( 'NONE', #253 ) ;
#93 = ORIENTED_EDGE ( 'NONE', *, *, #155, .F. ) ;
#94 = CARTESIAN_POINT ( 'NONE',  ( 1.326762908760390423E-13, -4.653657836759941152E-15, 38.00000000000000000 ) ) ;
#95 = ORIENTED_EDGE ( 'NONE', *, *, #80, .F. ) ;
#96 = DIRECTION ( 'NONE',  ( -3.491481338843133355E-15, 1.224646799147352961E-16, -1.000000000000000000 ) ) ;
#97 = SECURITY_CLASSIFICATION ( '', '', #282 ) ;
#98 = ORIENTED_EDGE ( 'NONE', *, *, #57, .F. ) ;
#99 = EDGE_CURVE ( 'NONE', #32, #32, #229, .T. ) ;
#100 = DIRECTION ( 'NONE',  ( 0.0000000000000000000, 1.000000000000000000, 0.0000000000000000000 ) ) ;
#101 = DIRECTION ( 'NONE',  ( -3.491481338843133355E-15, 1.224646799147352961E-16, -1.000000000000000000 ) ) ;
#102 = APPROVAL_ROLE ( '' ) ;
#103 = ORIENTED_EDGE ( 'NONE', *, *, #236, .T. ) ;
#104 =( NAMED_UNIT ( * ) SI_UNIT ( $, .STERADIAN. ) SOLID_ANGLE_UNIT ( ) );
#105 = CONICAL_SURFACE ( 'NONE', #135, 0.3684999999999990505, 0.5235987755982927094 ) ;
#106 = PRODUCT_DEFINITION ( 'UNKNOWN', '', #44, #238 ) ;
#107 = APPLICATION_CONTEXT ( 'configuration controlled 3d designs of mechanical parts and assemblies' ) ;
#108 = AXIS2_PLACEMENT_3D ( 'NONE', #109, #30, #14 ) ;
#109 = CARTESIAN_POINT ( 'NONE',  ( 0.0000000000000000000, 0.0000000000000000000, 0.0000000000000000000 ) ) ;
#110 = CC_DESIGN_PERSON_AND_ORGANIZATION_ASSIGNMENT ( #191, #124, ( #106 ) ) ;
#111 = AXIS2_PLACEMENT_3D ( 'NONE', #141, #259, #147 ) ;
#112 = EDGE_CURVE ( 'NONE', #117, #117, #215, .T. ) ;
#113 = FACE_OUTER_BOUND ( 'NONE', #5, .T. ) ;
#114 = DIRECTION ( 'NONE',  ( 3.491481338843133355E-15, -1.224646799147352961E-16, 1.000000000000000000 ) ) ;
#115 = DIRECTION ( 'NONE',  ( 4.275831445896956855E-31, 1.000000000000000000, 1.224646799147352961E-16 ) ) ;
#116 = EDGE_LOOP ( 'NONE', ( #98 ) ) ;
#117 = VERTEX_POINT ( 'NONE', #6 ) ;
#118 = EDGE_LOOP ( 'NONE', ( #167 ) ) ;
#119 = VERTEX_POINT ( 'NONE', #179 ) ;
#120 = CIRCLE ( 'NONE', #220, 0.3684999999999990505 ) ;
#121 = ORIENTED_EDGE ( 'NONE', *, *, #99, .F. ) ;
#122 = CALENDAR_DATE ( 2021, 26, 11 ) ;
#123 = FACE_OUTER_BOUND ( 'NONE', #187, .T. ) ;
#124 = PERSON_AND_ORGANIZATION_ROLE ( 'creator' ) ;
#125 = DATE_AND_TIME ( #122, #150 ) ;
#126 = ADVANCED_FACE ( 'NONE', ( #60 ), #83, .F. ) ;
#127 = APPLICATION_CONTEXT ( 'configuration controlled 3d designs of mechanical parts and assemblies' ) ;
#128 = APPROVAL_PERSON_ORGANIZATION ( #174, #171, #190 ) ;
#129 = CIRCLE ( 'NONE', #248, 0.3684999999999999942 ) ;
#130 = CARTESIAN_POINT ( 'NONE',  ( 5.094780988861143587E-14, 1.499999999999995559, 14.59203270594952428 ) ) ;
#131 = ADVANCED_FACE ( 'NONE', ( #267, #162 ), #66, .F. ) ;
#132 = PLANE ( 'NONE',  #18 ) ;
#133 = PLANE ( 'NONE',  #189 ) ;
#134 = PRODUCT_DEFINITION_SHAPE ( 'NONE', 'NONE',  #106 ) ;
#135 = AXIS2_PLACEMENT_3D ( 'NONE', #8, #242, #206 ) ;
#136 = FACE_OUTER_BOUND ( 'NONE', #116, .T. ) ;
#137 = DIRECTION ( 'NONE',  ( -3.491481338843133355E-15, 1.224646799147352961E-16, -1.000000000000000000 ) ) ;
#138 = VERTEX_POINT ( 'NONE', #164 ) ;
#139 = DIRECTION ( 'NONE',  ( 0.0000000000000000000, 1.000000000000000000, 0.0000000000000000000 ) ) ;
#140 = DIRECTION ( 'NONE',  ( 3.491481338843133355E-15, -1.224646799147352961E-16, 1.000000000000000000 ) ) ;
#141 = CARTESIAN_POINT ( 'NONE',  ( 1.396592535537253342E-14, -4.898587196589411843E-16, 4.000000000000000000 ) ) ;
#142 = CONICAL_SURFACE ( 'NONE', #239, 1.200000000000003286, 0.7853981633974453924 ) ;
#143 = DATE_AND_TIME ( #63, #237 ) ;
#144 = CIRCLE ( 'NONE', #178, 0.3107649730810372879 ) ;
#145 = CARTESIAN_POINT ( 'NONE',  ( 1.326762908760390423E-13, -4.653657836759941152E-15, 38.00000000000000000 ) ) ;
#146 = DATE_AND_TIME ( #16, #75 ) ;
#147 = DIRECTION ( 'NONE',  ( 0.0000000000000000000, 1.000000000000000000, 0.0000000000000000000 ) ) ;
#148 = PERSON_AND_ORGANIZATION ( #176, #3 ) ;
#149 = APPROVAL_ROLE ( '' ) ;
#150 = LOCAL_TIME ( 15, 47, 26.00000000000000000, #37 ) ;
#151 = PERSON_AND_ORGANIZATION_ROLE ( 'classification_officer' ) ;
#152 = ADVANCED_FACE ( 'NONE', ( #271, #113 ), #278, .T. ) ;
#153 = EDGE_LOOP ( 'NONE', ( #81 ) ) ;
#154 = FACE_OUTER_BOUND ( 'NONE', #118, .T. ) ;
#155 = EDGE_CURVE ( 'NONE', #28, #28, #120, .T. ) ;
#156 = EDGE_LOOP ( 'NONE', ( #103 ) ) ;
#157 = CARTESIAN_POINT ( 'NONE',  ( 2.793185071074506684E-14, 0.3684999999999990505, 8.000000000000000000 ) ) ;
#158 = CARTESIAN_POINT ( 'NONE',  ( 1.396592535537253342E-14, -4.898587196589411843E-16, 4.000000000000000000 ) ) ;
#159 = DIRECTION ( 'NONE',  ( -4.275831445896957731E-31, -1.000000000000000000, -1.224646799147352961E-16 ) ) ;
#160 = EDGE_LOOP ( 'NONE', ( #243 ) ) ;
#161 = AXIS2_PLACEMENT_3D ( 'NONE', #247, #114, #163 ) ;
#162 = FACE_OUTER_BOUND ( 'NONE', #67, .T. ) ;
#163 = DIRECTION ( 'NONE',  ( -4.275831445896957731E-31, -1.000000000000000000, -1.224646799147352961E-16 ) ) ;
#164 = CARTESIAN_POINT ( 'NONE',  ( 1.396592535537253342E-14, 0.3684999999999990505, 4.000000000000000000 ) ) ;
#165 = PLANE ( 'NONE',  #161 ) ;
#166 = PERSON_AND_ORGANIZATION_ROLE ( 'design_supplier' ) ;
#167 = ORIENTED_EDGE ( 'NONE', *, *, #155, .T. ) ;
#168 = AXIS2_PLACEMENT_3D ( 'NONE', #276, #180, #73 ) ;
#169 = MANIFOLD_SOLID_BREP ( 'Corps-Déplacer/Copier1[1]', #23 ) ;
#170 = MECHANICAL_CONTEXT ( 'NONE', #107, 'mechanical' ) ;
#171 = APPROVAL ( #233, 'UNSPECIFIED' ) ;
#172 = DIRECTION ( 'NONE',  ( 3.491481338843133355E-15, -1.224646799147352961E-16, 1.000000000000000000 ) ) ;
#173 = ADVANCED_FACE ( 'NONE', ( #218, #154 ), #105, .T. ) ;
#174 = PERSON_AND_ORGANIZATION ( #176, #3 ) ;
#175 = APPROVAL_DATE_TIME ( #61, #244 ) ;
#176 = PERSON ( 'UNSPECIFIED', 'UNSPECIFIED', 'UNSPECIFIED', ('UNSPECIFIED'), ('UNSPECIFIED'), ('UNSPECIFIED') ) ;
#177 = EDGE_LOOP ( 'NONE', ( #93 ) ) ;
#178 = AXIS2_PLACEMENT_3D ( 'NONE', #10, #12, #47 ) ;
#179 = CARTESIAN_POINT ( 'NONE',  ( 2.914442945444142440E-14, 0.3988844939755800123, 8.347296355333845952 ) ) ;
#180 = DIRECTION ( 'NONE',  ( -3.491481338843133355E-15, 1.224646799147352961E-16, -1.000000000000000000 ) ) ;
#181 = DIRECTION ( 'NONE',  ( -3.491481338843133355E-15, 1.224646799147352961E-16, -1.000000000000000000 ) ) ;
#182 = CYLINDRICAL_SURFACE ( 'NONE', #168, 1.500000000000000222 ) ;
#183 = APPROVAL_PERSON_ORGANIZATION ( #43, #212, #102 ) ;
#184 = CARTESIAN_POINT ( 'NONE',  ( 2.914442945444142440E-14, -1.022248976309395884E-15, 8.347296355333845952 ) ) ;
#185 = ORIENTED_EDGE ( 'NONE', *, *, #194, .T. ) ;
#186 = CARTESIAN_POINT ( 'NONE',  ( 0.0000000000000000000, 0.0000000000000000000, 0.0000000000000000000 ) ) ;
#187 = EDGE_LOOP ( 'NONE', ( #226 ) ) ;
#188 = EDGE_LOOP ( 'NONE', ( #228 ) ) ;
#189 = AXIS2_PLACEMENT_3D ( 'NONE', #200, #137, #223 ) ;
#190 = APPROVAL_ROLE ( '' ) ;
#191 = PERSON_AND_ORGANIZATION ( #176, #3 ) ;
#192 = CC_DESIGN_APPROVAL ( #171, ( #106 ) ) ;
#193 = CC_DESIGN_PERSON_AND_ORGANIZATION_ASSIGNMENT ( #21, #19, ( #44 ) ) ;
#194 = EDGE_CURVE ( 'NONE', #92, #92, #144, .T. ) ;
#195 = CLOSED_SHELL ( 'NONE', ( #126, #173, #26, #245 ) ) ;
#196 =( GEOMETRIC_REPRESENTATION_CONTEXT ( 3 ) GLOBAL_UNCERTAINTY_ASSIGNED_CONTEXT ( ( #87 ) ) GLOBAL_UNIT_ASSIGNED_CONTEXT ( ( #246, #280, #104 ) ) REPRESENTATION_CONTEXT ( 'NONE', 'WORKASPACE' ) );
#197 = ORIENTED_EDGE ( 'NONE', *, *, #80, .T. ) ;
#198 = LOCAL_TIME ( 15, 47, 26.00000000000000000, #40 ) ;
#199 = CARTESIAN_POINT ( 'NONE',  ( 1.316288464743861212E-13, 1.499999999999998668, 37.69999999999999574 ) ) ;
#200 = CARTESIAN_POINT ( 'NONE',  ( 1.326762908760390423E-13, 8.998558695971099120E-33, 38.00000000000000000 ) ) ;
#201 = DIRECTION ( 'NONE',  ( -3.491481338843133355E-15, 1.224646799147352961E-16, -1.000000000000000000 ) ) ;
#202 = EDGE_LOOP ( 'NONE', ( #121 ) ) ;
#203 = DIRECTION ( 'NONE',  ( 3.919803143257613595E-31, 1.000000000000000000, 1.103326498458792971E-16 ) ) ;
#204 = DIRECTION ( 'NONE',  ( -3.491481338843133355E-15, 1.224646799147352961E-16, -1.000000000000000000 ) ) ;
#205 = CONICAL_SURFACE ( 'NONE', #22, 1.499999999999997113, 0.1745329251994260367 ) ;
#206 = DIRECTION ( 'NONE',  ( -3.919803143257613595E-31, -1.000000000000000000, -1.103326498458792971E-16 ) ) ;
#207 = ORIENTED_EDGE ( 'NONE', *, *, #263, .T. ) ;
#208 = APPROVAL_STATUS ( 'not_yet_approved' ) ;
#209 = FACE_OUTER_BOUND ( 'NONE', #266, .T. ) ;
#210 = AXIS2_PLACEMENT_3D ( 'NONE', #240, #249, #34 ) ;
#211 = DATE_TIME_ROLE ( 'classification_date' ) ;
#212 = APPROVAL ( #208, 'UNSPECIFIED' ) ;
#213 = PERSON_AND_ORGANIZATION ( #176, #3 ) ;
#214 = APPLICATION_PROTOCOL_DEFINITION ( 'international standard', 'config_control_design', 1994, #127 ) ;
#215 = CIRCLE ( 'NONE', #111, 0.3684999999999995501 ) ;
#216 = AXIS2_PLACEMENT_3D ( 'NONE', #35, #204, #251 ) ;
#217 = CARTESIAN_POINT ( 'NONE',  ( 3.491481338843133848E-16, 0.3684999999999990505, 0.1000000000000000056 ) ) ;
#218 = FACE_BOUND ( 'NONE', #188, .T. ) ;
#219 = ORIENTED_EDGE ( 'NONE', *, *, #221, .F. ) ;
#220 = AXIS2_PLACEMENT_3D ( 'NONE', #273, #49, #203 ) ;
#221 = EDGE_CURVE ( 'NONE', #54, #54, #91, .T. ) ;
#222 = CARTESIAN_POINT ( 'NONE',  ( 1.396592535537253342E-14, 2.763307399554460792E-33, 4.000000000000000000 ) ) ;
#223 = DIRECTION ( 'NONE',  ( 4.275831445896957731E-31, 1.000000000000000000, 1.224646799147352961E-16 ) ) ;
#224 = PRODUCT ( '959571', '959571', '', ( #170 ) ) ;
#225 = VERTEX_POINT ( 'NONE', #157 ) ;
#226 = ORIENTED_EDGE ( 'NONE', *, *, #57, .T. ) ;
#227 = CARTESIAN_POINT ( 'NONE',  ( 1.326762908760390423E-13, 1.199999999999998845, 38.00000000000000000 ) ) ;
#228 = ORIENTED_EDGE ( 'NONE', *, *, #194, .F. ) ;
#229 = CIRCLE ( 'NONE', #50, 1.499999999999997113 ) ;
#230 = APPROVAL_DATE_TIME ( #143, #171 ) ;
#231 = EDGE_LOOP ( 'NONE', ( #185 ) ) ;
#232 = APPROVAL_DATE_TIME ( #146, #212 ) ;
#233 = APPROVAL_STATUS ( 'not_yet_approved' ) ;
#234 = PERSON_AND_ORGANIZATION ( #176, #3 ) ;
#235 = PERSON_AND_ORGANIZATION_ROLE ( 'design_owner' ) ;
#236 = EDGE_CURVE ( 'NONE', #27, #27, #268, .T. ) ;
#237 = LOCAL_TIME ( 15, 47, 26.00000000000000000, #2 ) ;
#238 = DESIGN_CONTEXT ( 'detailed design', #127, 'design' ) ;
#239 = AXIS2_PLACEMENT_3D ( 'NONE', #145, #76, #139 ) ;
#240 = CARTESIAN_POINT ( 'NONE',  ( 1.316288464743861212E-13, -4.616918432785520292E-15, 37.69999999999999574 ) ) ;
#241 = ORIENTED_EDGE ( 'NONE', *, *, #112, .F. ) ;
#242 = DIRECTION ( 'NONE',  ( 3.491481338843133355E-15, -1.224646799147352961E-16, 1.000000000000000000 ) ) ;
#243 = ORIENTED_EDGE ( 'NONE', *, *, #236, .F. ) ;
#244 = APPROVAL ( #260, 'UNSPECIFIED' ) ;
#245 = ADVANCED_FACE ( 'NONE', ( #136 ), #132, .T. ) ;
#246 =( LENGTH_UNIT ( ) NAMED_UNIT ( * ) SI_UNIT ( .MILLI., .METRE. ) );
#247 = CARTESIAN_POINT ( 'NONE',  ( 1.396592535537253342E-14, 2.763307399554460792E-33, 4.000000000000000000 ) ) ;
#248 = AXIS2_PLACEMENT_3D ( 'NONE', #256, #48, #78 ) ;
#249 = DIRECTION ( 'NONE',  ( -3.491481338843133355E-15, 1.224646799147352961E-16, -1.000000000000000000 ) ) ;
#250 = ADVANCED_BREP_SHAPE_REPRESENTATION ( '959571', ( #169, #261, #7 ), #196 ) ;
#251 = DIRECTION ( 'NONE',  ( 4.275831445896957731E-31, 1.000000000000000000, 1.224646799147352714E-16 ) ) ;
#252 = CC_DESIGN_PERSON_AND_ORGANIZATION_ASSIGNMENT ( #213, #166, ( #44 ) ) ;
#253 = CARTESIAN_POINT ( 'NONE',  ( 9.463679131915805687E-32, 0.3107649730810372879, 2.710505431213761085E-17 ) ) ;
#254 = CARTESIAN_POINT ( 'NONE',  ( 5.094780988861143587E-14, -1.787008614639457113E-15, 14.59203270594952428 ) ) ;
#255 = APPLICATION_PROTOCOL_DEFINITION ( 'international standard', 'config_control_design', 1994, #107 ) ;
#256 = CARTESIAN_POINT ( 'NONE',  ( 2.793185071074506684E-14, -9.797174393178823685E-16, 8.000000000000000000 ) ) ;
#257 = CIRCLE ( 'NONE', #36, 0.3988844939755810670 ) ;
#258 = DATE_AND_TIME ( #56, #88 ) ;
#259 = DIRECTION ( 'NONE',  ( -3.491481338843133355E-15, 1.224646799147352961E-16, -1.000000000000000000 ) ) ;
#260 = APPROVAL_STATUS ( 'not_yet_approved' ) ;
#261 = MANIFOLD_SOLID_BREP ( 'Corps-Déplacer/Copier1[2]', #195 ) ;
#262 = CC_DESIGN_SECURITY_CLASSIFICATION ( #97, ( #44 ) ) ;
#263 = EDGE_CURVE ( 'NONE', #119, #119, #257, .T. ) ;
#264 = AXIS2_PLACEMENT_3D ( 'NONE', #69, #201, #115 ) ;
#265 = CC_DESIGN_DATE_AND_TIME_ASSIGNMENT ( #125, #211, ( #97 ) ) ;
#266 = EDGE_LOOP ( 'NONE', ( #90 ) ) ;
#267 = FACE_OUTER_BOUND ( 'NONE', #33, .T. ) ;
#268 = CIRCLE ( 'NONE', #24, 1.200000000000003286 ) ;
#269 = AXIS2_PLACEMENT_3D ( 'NONE', #158, #101, #11 ) ;
#270 = ORIENTED_EDGE ( 'NONE', *, *, #221, .T. ) ;
#271 = FACE_OUTER_BOUND ( 'NONE', #31, .T. ) ;
#272 = ADVANCED_FACE ( 'NONE', ( #74, #70 ), #205, .T. ) ;
#273 = CARTESIAN_POINT ( 'NONE',  ( 3.491481338843132369E-16, -1.224646799147352498E-17, 0.09999999999999996392 ) ) ;
#274 = FACE_BOUND ( 'NONE', #156, .T. ) ;
#275 = DIRECTION ( 'NONE',  ( 0.0000000000000000000, 1.000000000000000000, 0.0000000000000000000 ) ) ;
#276 = CARTESIAN_POINT ( 'NONE',  ( 0.0000000000000000000, 0.0000000000000000000, 0.0000000000000000000 ) ) ;
#277 = CIRCLE ( 'NONE', #269, 0.3684999999999995501 ) ;
#278 = CYLINDRICAL_SURFACE ( 'NONE', #108, 0.3684999999999997722 ) ;
#279 = CYLINDRICAL_SURFACE ( 'NONE', #216, 0.3684999999999992726 ) ;
#280 =( NAMED_UNIT ( * ) PLANE_ANGLE_UNIT ( ) SI_UNIT ( $, .RADIAN. ) );
#281 = EDGE_LOOP ( 'NONE', ( #71 ) ) ;
#282 = SECURITY_CLASSIFICATION_LEVEL ( 'unclassified' ) ;
#283 = CARTESIAN_POINT ( 'NONE',  ( -1.912053654958200684E-32, 6.706581422309476097E-34, -5.476339322471476154E-18 ) ) ;
ENDSEC;
END-ISO-10303-21;
