ISO-10303-21;
HEADER;
FILE_DESCRIPTION (( 'STEP AP203' ),
    '1' );
FILE_NAME ('959535.step',
    '2021-11-30T06:45:13',
    ( '' ),
    ( '' ),
    'SwSTEP 2.0',
    'SolidWorks 2019',
    '' );
FILE_SCHEMA (( 'CONFIG_CONTROL_DESIGN' ));
ENDSEC;

DATA;
#1 = EDGE_LOOP ( 'NONE', ( #269 ) ) ;
#2 = AXIS2_PLACEMENT_3D ( 'NONE', #289, #80, #173 ) ;
#3 = EDGE_LOOP ( 'NONE', ( #127 ) ) ;
#4 = VERTEX_POINT ( 'NONE', #261 ) ;
#5 = CARTESIAN_POINT ( 'NONE',  ( 8.728703347107833388E-16, 1.238499999999993939, 0.2500000000000000000 ) ) ;
#6 = DIRECTION ( 'NONE',  ( -3.491481338843133355E-15, 1.224646799147353207E-16, -1.000000000000000000 ) ) ;
#7 = APPLICATION_CONTEXT ( 'configuration controlled 3d designs of mechanical parts and assemblies' ) ;
#8 = DIRECTION ( 'NONE',  ( 4.275831445896958607E-31, 1.000000000000000000, 1.224646799147353454E-16 ) ) ;
#9 = AXIS2_PLACEMENT_3D ( 'NONE', #219, #216, #8 ) ;
#10 = CARTESIAN_POINT ( 'NONE',  ( 8.728703347107827472E-16, -3.061616997868381169E-17, 0.2499999999999998335 ) ) ;
#11 = CC_DESIGN_DATE_AND_TIME_ASSIGNMENT ( #65, #111, ( #174 ) ) ;
#12 = ORIENTED_EDGE ( 'NONE', *, *, #115, .T. ) ;
#13 = CYLINDRICAL_SURFACE ( 'NONE', #122, 1.238499999999994605 ) ;
#14 = DIRECTION ( 'NONE',  ( 0.0000000000000000000, -1.000000000000000000, 0.0000000000000000000 ) ) ;
#15 = FACE_OUTER_BOUND ( 'NONE', #3, .T. ) ;
#16 = CONICAL_SURFACE ( 'NONE', #181, 1.238499999999993939, 0.5235987755982922653 ) ;
#17 = CC_DESIGN_PERSON_AND_ORGANIZATION_ASSIGNMENT ( #205, #42, ( #174 ) ) ;
#18 = APPROVAL_DATE_TIME ( #229, #72 ) ;
#19 = CALENDAR_DATE ( 2021, 30, 11 ) ;
#20 = COORDINATED_UNIVERSAL_TIME_OFFSET ( 1, 0, .AHEAD. ) ;
#21 = EDGE_LOOP ( 'NONE', ( #160 ) ) ;
#22 = EDGE_LOOP ( 'NONE', ( #140 ) ) ;
#23 = VERTEX_POINT ( 'NONE', #141 ) ;
#24 = AXIS2_PLACEMENT_3D ( 'NONE', #83, #176, #271 ) ;
#25 = APPROVAL_PERSON_ORGANIZATION ( #134, #250, #109 ) ;
#26 = EDGE_LOOP ( 'NONE', ( #171 ) ) ;
#27 = DIRECTION ( 'NONE',  ( 0.0000000000000000000, 1.000000000000000000, 0.0000000000000000000 ) ) ;
#28 = DIRECTION ( 'NONE',  ( 0.0000000000000000000, 1.000000000000000000, 0.0000000000000000000 ) ) ;
#29 = EDGE_CURVE ( 'NONE', #186, #186, #130, .T. ) ;
#30 = CARTESIAN_POINT ( 'NONE',  ( -2.785718310285686914E-31, 9.770984521853156643E-33, -7.978614347137556327E-17 ) ) ;
#31 = CONICAL_SURFACE ( 'NONE', #201, 1.200000000000001732, 0.7853981633974453924 ) ;
#32 = EDGE_CURVE ( 'NONE', #214, #214, #75, .T. ) ;
#33 = CC_DESIGN_SECURITY_CLASSIFICATION ( #174, ( #264 ) ) ;
#34 = EDGE_LOOP ( 'NONE', ( #258 ) ) ;
#35 = FACE_OUTER_BOUND ( 'NONE', #73, .T. ) ;
#36 = FACE_BOUND ( 'NONE', #34, .T. ) ;
#37 = DIRECTION ( 'NONE',  ( -4.665151258103944878E-31, -1.000000000000000000, -1.313123341726495422E-16 ) ) ;
#38 = AXIS2_PLACEMENT_3D ( 'NONE', #288, #148, #190 ) ;
#39 = CC_DESIGN_APPROVAL ( #137, ( #264 ) ) ;
#40 = PRODUCT_DEFINITION ( 'UNKNOWN', '', #264, #247 ) ;
#41 = CIRCLE ( 'NONE', #92, 1.085000000000000187 ) ;
#42 = PERSON_AND_ORGANIZATION_ROLE ( 'classification_officer' ) ;
#43 = ADVANCED_FACE ( 'NONE', ( #36, #222 ), #147, .T. ) ;
#44 = PERSON_AND_ORGANIZATION_ROLE ( 'design_owner' ) ;
#45 = VERTEX_POINT ( 'NONE', #48 ) ;
#46 = AXIS2_PLACEMENT_3D ( 'NONE', #150, #102, #146 ) ;
#47 = APPROVAL_STATUS ( 'not_yet_approved' ) ;
#48 = CARTESIAN_POINT ( 'NONE',  ( 1.735266225405037467E-13, 1.499999999999995559, 49.70000000000000284 ) ) ;
#49 = ORIENTED_EDGE ( 'NONE', *, *, #86, .F. ) ;
#50 = CARTESIAN_POINT ( 'NONE',  ( 3.491481338843133355E-14, 1.238499999999993939, 10.00000000000000000 ) ) ;
#51 = EDGE_LOOP ( 'NONE', ( #185 ) ) ;
#52 = AXIS2_PLACEMENT_3D ( 'NONE', #106, #6, #265 ) ;
#53 =( LENGTH_UNIT ( ) NAMED_UNIT ( * ) SI_UNIT ( .MILLI., .METRE. ) );
#54 = DIRECTION ( 'NONE',  ( -3.491481338843133355E-15, 1.224646799147353207E-16, -1.000000000000000000 ) ) ;
#55 = ADVANCED_FACE ( 'NONE', ( #57, #243 ), #227, .F. ) ;
#56 = CYLINDRICAL_SURFACE ( 'NONE', #248, 1.084999999999999520 ) ;
#57 = FACE_OUTER_BOUND ( 'NONE', #91, .T. ) ;
#58 = AXIS2_PLACEMENT_3D ( 'NONE', #10, #82, #175 ) ;
#59 = CARTESIAN_POINT ( 'NONE',  ( 3.491481338843133355E-14, 9.287262454133498690E-33, 10.00000000000000000 ) ) ;
#60 = ADVANCED_BREP_SHAPE_REPRESENTATION ( '959535', ( #200, #298, #158 ), #299 ) ;
#61 = FACE_OUTER_BOUND ( 'NONE', #21, .T. ) ;
#62 = EDGE_LOOP ( 'NONE', ( #70 ) ) ;
#63 = UNCERTAINTY_MEASURE_WITH_UNIT (LENGTH_MEASURE( 1.000000000000000082E-05 ), #53, 'distance_accuracy_value', 'NONE');
#64 = CC_DESIGN_PERSON_AND_ORGANIZATION_ASSIGNMENT ( #204, #44, ( #285 ) ) ;
#65 = DATE_AND_TIME ( #159, #198 ) ;
#66 = PERSON_AND_ORGANIZATION_ROLE ( 'creator' ) ;
#67 = APPLICATION_CONTEXT ( 'configuration controlled 3d designs of mechanical parts and assemblies' ) ;
#68 = CLOSED_SHELL ( 'NONE', ( #135, #77, #98, #55, #43, #215, #249, #178 ) ) ;
#69 = PERSON_AND_ORGANIZATION ( #108, #225 ) ;
#70 = ORIENTED_EDGE ( 'NONE', *, *, #32, .T. ) ;
#71 = VERTEX_POINT ( 'NONE', #235 ) ;
#72 = APPROVAL ( #47, 'UNSPECIFIED' ) ;
#73 = EDGE_LOOP ( 'NONE', ( #303 ) ) ;
#74 = CARTESIAN_POINT ( 'NONE',  ( 3.584309283006850656E-14, 1.084999999999997966, 10.26586979896182150 ) ) ;
#75 = CIRCLE ( 'NONE', #2, 1.499999999999996669 ) ;
#76 = CARTESIAN_POINT ( 'NONE',  ( 1.735266225405037467E-13, -6.086494591762345225E-15, 49.70000000000000284 ) ) ;
#77 = ADVANCED_FACE ( 'NONE', ( #292, #124 ), #191, .T. ) ;
#78 = FACE_OUTER_BOUND ( 'NONE', #114, .T. ) ;
#79 = DIRECTION ( 'NONE',  ( 4.275831445896958607E-31, 1.000000000000000000, 1.224646799147352961E-16 ) ) ;
#80 = DIRECTION ( 'NONE',  ( -3.491481338843133355E-15, 1.224646799147353207E-16, -1.000000000000000000 ) ) ;
#81 = CIRCLE ( 'NONE', #58, 1.238499999999993939 ) ;
#82 = DIRECTION ( 'NONE',  ( -3.491481338843133355E-15, 1.224646799147353207E-16, -1.000000000000000000 ) ) ;
#83 = CARTESIAN_POINT ( 'NONE',  ( 6.982962677686266711E-14, -2.602085213965210642E-15, 20.00000000000000000 ) ) ;
#84 = ADVANCED_FACE ( 'NONE', ( #144, #170 ), #16, .T. ) ;
#85 = CC_DESIGN_APPROVAL ( #72, ( #174 ) ) ;
#86 = EDGE_CURVE ( 'NONE', #189, #189, #41, .T. ) ;
#87 = MECHANICAL_CONTEXT ( 'NONE', #7, 'mechanical' ) ;
#88 = PERSON_AND_ORGANIZATION_ROLE ( 'design_supplier' ) ;
#89 = CALENDAR_DATE ( 2021, 30, 11 ) ;
#90 = APPROVAL_STATUS ( 'not_yet_approved' ) ;
#91 = EDGE_LOOP ( 'NONE', ( #49 ) ) ;
#92 = AXIS2_PLACEMENT_3D ( 'NONE', #192, #270, #197 ) ;
#93 = APPROVAL_PERSON_ORGANIZATION ( #300, #137, #132 ) ;
#94 = EDGE_CURVE ( 'NONE', #206, #206, #81, .T. ) ;
#95 = EDGE_LOOP ( 'NONE', ( #12 ) ) ;
#96 = DIRECTION ( 'NONE',  ( 3.491481338843133355E-15, -1.224646799147353207E-16, 1.000000000000000000 ) ) ;
#97 = CARTESIAN_POINT ( 'NONE',  ( 3.491481338843133355E-14, -1.224646799147353256E-15, 10.00000000000000000 ) ) ;
#98 = ADVANCED_FACE ( 'NONE', ( #293, #61 ), #56, .T. ) ;
#99 = DIRECTION ( 'NONE',  ( -3.491481338843133355E-15, 1.224646799147353207E-16, -1.000000000000000000 ) ) ;
#100 = FACE_OUTER_BOUND ( 'NONE', #282, .T. ) ;
#101 = PLANE ( 'NONE',  #110 ) ;
#102 = DIRECTION ( 'NONE',  ( -3.491481338843133355E-15, 1.224646799147353207E-16, -1.000000000000000000 ) ) ;
#103 = CARTESIAN_POINT ( 'NONE',  ( 8.728703347107827472E-16, -3.061616997868381169E-17, 0.2499999999999998335 ) ) ;
#104 = EDGE_LOOP ( 'NONE', ( #245 ) ) ;
#105 = AXIS2_PLACEMENT_3D ( 'NONE', #123, #195, #167 ) ;
#106 = CARTESIAN_POINT ( 'NONE',  ( 7.104220552055900573E-14, -2.491825135286219437E-15, 20.34729635533384240 ) ) ;
#107 = EDGE_LOOP ( 'NONE', ( #116 ) ) ;
#108 = PERSON ( 'UNSPECIFIED', 'UNSPECIFIED', 'UNSPECIFIED', ('UNSPECIFIED'), ('UNSPECIFIED'), ('UNSPECIFIED') ) ;
#109 = APPROVAL_ROLE ( '' ) ;
#110 = AXIS2_PLACEMENT_3D ( 'NONE', #287, #99, #266 ) ;
#111 = DATE_TIME_ROLE ( 'classification_date' ) ;
#112 =( NAMED_UNIT ( * ) SI_UNIT ( $, .STERADIAN. ) SOLID_ANGLE_UNIT ( ) );
#113 = APPLICATION_PROTOCOL_DEFINITION ( 'international standard', 'config_control_design', 1994, #7 ) ;
#114 = EDGE_LOOP ( 'NONE', ( #260 ) ) ;
#115 = EDGE_CURVE ( 'NONE', #284, #284, #262, .T. ) ;
#116 = ORIENTED_EDGE ( 'NONE', *, *, #115, .F. ) ;
#117 = DIRECTION ( 'NONE',  ( -3.491481338843133355E-15, 1.224646799147353207E-16, -1.000000000000000000 ) ) ;
#118 = CIRCLE ( 'NONE', #38, 1.200000000000001732 ) ;
#119 = LOCAL_TIME ( 7, 45, 13.00000000000000000, #278 ) ;
#120 = CARTESIAN_POINT ( 'NONE',  ( -1.392859155142843457E-31, 4.885492260926578322E-33, -3.989307173568778163E-17 ) ) ;
#121 = FACE_OUTER_BOUND ( 'NONE', #149, .T. ) ;
#122 = AXIS2_PLACEMENT_3D ( 'NONE', #145, #241, #237 ) ;
#123 = CARTESIAN_POINT ( 'NONE',  ( 3.584309283006850656E-14, -1.257206458976207460E-15, 10.26586979896182150 ) ) ;
#124 = FACE_BOUND ( 'NONE', #95, .T. ) ;
#125 = CYLINDRICAL_SURFACE ( 'NONE', #9, 1.499999999999999112 ) ;
#126 = CC_DESIGN_DATE_AND_TIME_ASSIGNMENT ( #182, #179, ( #40 ) ) ;
#127 = ORIENTED_EDGE ( 'NONE', *, *, #239, .T. ) ;
#128 = DIRECTION ( 'NONE',  ( 3.491481338843133355E-15, -1.224646799147353207E-16, 1.000000000000000000 ) ) ;
#129 = CIRCLE ( 'NONE', #291, 1.094162432702589838 ) ;
#130 = CIRCLE ( 'NONE', #46, 1.238499999999995271 ) ;
#131 = APPROVAL_PERSON_ORGANIZATION ( #301, #72, #274 ) ;
#132 = APPROVAL_ROLE ( '' ) ;
#133 = COORDINATED_UNIVERSAL_TIME_OFFSET ( 1, 0, .AHEAD. ) ;
#134 = PERSON_AND_ORGANIZATION ( #108, #225 ) ;
#135 = ADVANCED_FACE ( 'NONE', ( #15 ), #267, .F. ) ;
#136 = APPLICATION_PROTOCOL_DEFINITION ( 'international standard', 'config_control_design', 1994, #67 ) ;
#137 = APPROVAL ( #90, 'UNSPECIFIED' ) ;
#138 = EDGE_LOOP ( 'NONE', ( #208 ) ) ;
#139 = CARTESIAN_POINT ( 'NONE',  ( 6.982962677686266711E-14, 1.084999999999997966, 20.00000000000000000 ) ) ;
#140 = ORIENTED_EDGE ( 'NONE', *, *, #193, .F. ) ;
#141 = CARTESIAN_POINT ( 'NONE',  ( 1.892735826383161356E-31, 1.094162432702589838, 5.421010862427522170E-17 ) ) ;
#142 = AXIS2_PLACEMENT_3D ( 'NONE', #59, #128, #221 ) ;
#143 = FACE_OUTER_BOUND ( 'NONE', #279, .T. ) ;
#144 = FACE_BOUND ( 'NONE', #22, .T. ) ;
#145 = CARTESIAN_POINT ( 'NONE',  ( 0.0000000000000000000, 0.0000000000000000000, 0.0000000000000000000 ) ) ;
#146 = DIRECTION ( 'NONE',  ( 0.0000000000000000000, 1.000000000000000000, 0.0000000000000000000 ) ) ;
#147 = CONICAL_SURFACE ( 'NONE', #172, 1.499999999999996669, 0.1745329251994260922 ) ;
#148 = DIRECTION ( 'NONE',  ( -3.491481338843133355E-15, 1.224646799147353207E-16, -1.000000000000000000 ) ) ;
#149 = EDGE_LOOP ( 'NONE', ( #177 ) ) ;
#150 = CARTESIAN_POINT ( 'NONE',  ( 3.491481338843133355E-14, -1.224646799147353256E-15, 10.00000000000000000 ) ) ;
#151 = CARTESIAN_POINT ( 'NONE',  ( 0.0000000000000000000, 0.0000000000000000000, 0.0000000000000000000 ) ) ;
#152 = EDGE_CURVE ( 'NONE', #209, #209, #224, .T. ) ;
#153 = DIRECTION ( 'NONE',  ( 1.000000000000000000, 0.0000000000000000000, 0.0000000000000000000 ) ) ;
#154 = APPROVAL_STATUS ( 'not_yet_approved' ) ;
#155 = DATE_AND_TIME ( #253, #166 ) ;
#156 = CARTESIAN_POINT ( 'NONE',  ( 0.0000000000000000000, 0.0000000000000000000, 0.0000000000000000000 ) ) ;
#157 = AXIS2_PLACEMENT_3D ( 'NONE', #302, #96, #263 ) ;
#158 = AXIS2_PLACEMENT_3D ( 'NONE', #156, #207, #153 ) ;
#159 = CALENDAR_DATE ( 2021, 30, 11 ) ;
#160 = ORIENTED_EDGE ( 'NONE', *, *, #86, .T. ) ;
#161 = DIRECTION ( 'NONE',  ( 3.491481338843133355E-15, -1.224646799147353207E-16, 1.000000000000000000 ) ) ;
#162 = ORIENTED_EDGE ( 'NONE', *, *, #183, .T. ) ;
#163 = FACE_BOUND ( 'NONE', #251, .T. ) ;
#164 = PLANE ( 'NONE',  #157 ) ;
#165 = AXIS2_PLACEMENT_3D ( 'NONE', #76, #54, #28 ) ;
#166 = LOCAL_TIME ( 7, 45, 13.00000000000000000, #20 ) ;
#167 = DIRECTION ( 'NONE',  ( 0.0000000000000000000, 1.000000000000000000, 0.0000000000000000000 ) ) ;
#168 = DIRECTION ( 'NONE',  ( 4.275831445896959482E-31, 1.000000000000000000, 1.224646799147353454E-16 ) ) ;
#169 = CC_DESIGN_PERSON_AND_ORGANIZATION_ASSIGNMENT ( #69, #88, ( #264 ) ) ;
#170 = FACE_OUTER_BOUND ( 'NONE', #26, .T. ) ;
#171 = ORIENTED_EDGE ( 'NONE', *, *, #94, .T. ) ;
#172 = AXIS2_PLACEMENT_3D ( 'NONE', #220, #196, #14 ) ;
#173 = DIRECTION ( 'NONE',  ( 0.0000000000000000000, 1.000000000000000000, 0.0000000000000000000 ) ) ;
#174 = SECURITY_CLASSIFICATION ( '', '', #180 ) ;
#175 = DIRECTION ( 'NONE',  ( 4.665151258103944878E-31, 1.000000000000000000, 1.313123341726495422E-16 ) ) ;
#176 = DIRECTION ( 'NONE',  ( -3.491481338843133355E-15, 1.224646799147353207E-16, -1.000000000000000000 ) ) ;
#177 = ORIENTED_EDGE ( 'NONE', *, *, #203, .T. ) ;
#178 = ADVANCED_FACE ( 'NONE', ( #244 ), #101, .F. ) ;
#179 = DATE_TIME_ROLE ( 'creation_date' ) ;
#180 = SECURITY_CLASSIFICATION_LEVEL ( 'unclassified' ) ;
#181 = AXIS2_PLACEMENT_3D ( 'NONE', #103, #290, #37 ) ;
#182 = DATE_AND_TIME ( #252, #119 ) ;
#183 = EDGE_CURVE ( 'NONE', #71, #71, #118, .T. ) ;
#184 = SHAPE_DEFINITION_REPRESENTATION ( #230, #60 ) ;
#185 = ORIENTED_EDGE ( 'NONE', *, *, #203, .F. ) ;
#186 = VERTEX_POINT ( 'NONE', #50 ) ;
#187 = EDGE_LOOP ( 'NONE', ( #210 ) ) ;
#188 = DIRECTION ( 'NONE',  ( -3.491481338843133355E-15, 1.224646799147353207E-16, -1.000000000000000000 ) ) ;
#189 = VERTEX_POINT ( 'NONE', #139 ) ;
#190 = DIRECTION ( 'NONE',  ( 0.0000000000000000000, 1.000000000000000000, 0.0000000000000000000 ) ) ;
#191 = CONICAL_SURFACE ( 'NONE', #105, 1.084999999999999076, 0.5235987755982913772 ) ;
#192 = CARTESIAN_POINT ( 'NONE',  ( 6.982962677686266711E-14, -2.449293598294706513E-15, 20.00000000000000000 ) ) ;
#193 = EDGE_CURVE ( 'NONE', #23, #23, #129, .T. ) ;
#194 = CC_DESIGN_PERSON_AND_ORGANIZATION_ASSIGNMENT ( #231, #66, ( #40 ) ) ;
#195 = DIRECTION ( 'NONE',  ( -3.491481338843133355E-15, 1.224646799147353207E-16, -1.000000000000000000 ) ) ;
#196 = DIRECTION ( 'NONE',  ( 3.491481338843133355E-15, -1.224646799147353207E-16, 1.000000000000000000 ) ) ;
#197 = DIRECTION ( 'NONE',  ( 0.0000000000000000000, 1.000000000000000000, 0.0000000000000000000 ) ) ;
#198 = LOCAL_TIME ( 7, 45, 13.00000000000000000, #273 ) ;
#199 = DIRECTION ( 'NONE',  ( -3.491481338843133355E-15, 1.224646799147353207E-16, -1.000000000000000000 ) ) ;
#200 = MANIFOLD_SOLID_BREP ( 'Corps-Déplacer/Copier1[1]', #68 ) ;
#201 = AXIS2_PLACEMENT_3D ( 'NONE', #212, #117, #27 ) ;
#202 = COORDINATED_UNIVERSAL_TIME_OFFSET ( 1, 0, .AHEAD. ) ;
#203 = EDGE_CURVE ( 'NONE', #45, #45, #297, .T. ) ;
#204 = PERSON_AND_ORGANIZATION ( #108, #225 ) ;
#205 = PERSON_AND_ORGANIZATION ( #108, #225 ) ;
#206 = VERTEX_POINT ( 'NONE', #5 ) ;
#207 = DIRECTION ( 'NONE',  ( 0.0000000000000000000, 0.0000000000000000000, 1.000000000000000000 ) ) ;
#208 = ORIENTED_EDGE ( 'NONE', *, *, #183, .F. ) ;
#209 = VERTEX_POINT ( 'NONE', #256 ) ;
#210 = ORIENTED_EDGE ( 'NONE', *, *, #239, .F. ) ;
#211 = CLOSED_SHELL ( 'NONE', ( #294, #84, #226, #272 ) ) ;
#212 = CARTESIAN_POINT ( 'NONE',  ( 1.745740669421566678E-13, -6.123233995736766085E-15, 50.00000000000000000 ) ) ;
#213 = LOCAL_TIME ( 7, 45, 13.00000000000000000, #133 ) ;
#214 = VERTEX_POINT ( 'NONE', #283 ) ;
#215 = ADVANCED_FACE ( 'NONE', ( #35, #121 ), #125, .T. ) ;
#216 = DIRECTION ( 'NONE',  ( -3.491481338843133355E-15, 1.224646799147353207E-16, -1.000000000000000000 ) ) ;
#217 = CIRCLE ( 'NONE', #295, 1.238499999999995271 ) ;
#218 = CC_DESIGN_APPROVAL ( #250, ( #40 ) ) ;
#219 = CARTESIAN_POINT ( 'NONE',  ( 0.0000000000000000000, 0.0000000000000000000, 0.0000000000000000000 ) ) ;
#220 = CARTESIAN_POINT ( 'NONE',  ( 7.865804432479902713E-14, -2.758952801433937201E-15, 22.52855928219326032 ) ) ;
#221 = DIRECTION ( 'NONE',  ( -4.275831445896958607E-31, -1.000000000000000000, -1.224646799147353207E-16 ) ) ;
#222 = FACE_OUTER_BOUND ( 'NONE', #62, .T. ) ;
#223 = DIRECTION ( 'NONE',  ( -3.491481338843133355E-15, 1.224646799147353207E-16, -1.000000000000000000 ) ) ;
#224 = CIRCLE ( 'NONE', #52, 1.115384493975581703 ) ;
#225 = ORGANIZATION ( 'UNSPECIFIED', 'UNSPECIFIED', '' ) ;
#226 = ADVANCED_FACE ( 'NONE', ( #100, #78 ), #13, .T. ) ;
#227 = TOROIDAL_SURFACE ( 'NONE', #24, 3.085000000000000853, 2.000000000000000444 ) ;
#228 = PERSON_AND_ORGANIZATION_ROLE ( 'creator' ) ;
#229 = DATE_AND_TIME ( #89, #213 ) ;
#230 = PRODUCT_DEFINITION_SHAPE ( 'NONE', 'NONE',  #40 ) ;
#231 = PERSON_AND_ORGANIZATION ( #108, #225 ) ;
#232 = APPROVAL_DATE_TIME ( #296, #250 ) ;
#233 = FACE_OUTER_BOUND ( 'NONE', #51, .T. ) ;
#234 = ORIENTED_EDGE ( 'NONE', *, *, #94, .F. ) ;
#235 = CARTESIAN_POINT ( 'NONE',  ( 1.745740669421566678E-13, 1.199999999999995515, 50.00000000000000000 ) ) ;
#236 = ORIENTED_EDGE ( 'NONE', *, *, #29, .F. ) ;
#237 = DIRECTION ( 'NONE',  ( 4.275831445896958607E-31, 1.000000000000000000, 1.224646799147353207E-16 ) ) ;
#238 = FACE_OUTER_BOUND ( 'NONE', #104, .T. ) ;
#239 = EDGE_CURVE ( 'NONE', #4, #4, #217, .T. ) ;
#240 = DIRECTION ( 'NONE',  ( 0.0000000000000000000, 1.000000000000000000, 0.0000000000000000000 ) ) ;
#241 = DIRECTION ( 'NONE',  ( -3.491481338843133355E-15, 1.224646799147353207E-16, -1.000000000000000000 ) ) ;
#242 = AXIS2_PLACEMENT_3D ( 'NONE', #120, #161, #281 ) ;
#243 = FACE_OUTER_BOUND ( 'NONE', #1, .T. ) ;
#244 = FACE_OUTER_BOUND ( 'NONE', #138, .T. ) ;
#245 = ORIENTED_EDGE ( 'NONE', *, *, #193, .T. ) ;
#246 = CARTESIAN_POINT ( 'NONE',  ( 3.584309283006850656E-14, -1.257206458976207460E-15, 10.26586979896182150 ) ) ;
#247 = DESIGN_CONTEXT ( 'detailed design', #67, 'design' ) ;
#248 = AXIS2_PLACEMENT_3D ( 'NONE', #151, #223, #168 ) ;
#249 = ADVANCED_FACE ( 'NONE', ( #233, #163 ), #31, .T. ) ;
#250 = APPROVAL ( #154, 'UNSPECIFIED' ) ;
#251 = EDGE_LOOP ( 'NONE', ( #162 ) ) ;
#252 = CALENDAR_DATE ( 2021, 30, 11 ) ;
#253 = CALENDAR_DATE ( 2021, 30, 11 ) ;
#254 = PERSON_AND_ORGANIZATION ( #108, #225 ) ;
#255 = PLANE ( 'NONE',  #242 ) ;
#256 = CARTESIAN_POINT ( 'NONE',  ( 7.104220552055900573E-14, 1.115384493975579261, 20.34729635533384240 ) ) ;
#257 = PRODUCT_RELATED_PRODUCT_CATEGORY ( 'detail', '', ( #285 ) ) ;
#258 = ORIENTED_EDGE ( 'NONE', *, *, #152, .F. ) ;
#259 = DIRECTION ( 'NONE',  ( 0.0000000000000000000, 1.000000000000000000, 0.0000000000000000000 ) ) ;
#260 = ORIENTED_EDGE ( 'NONE', *, *, #29, .T. ) ;
#261 = CARTESIAN_POINT ( 'NONE',  ( 3.491481338843133355E-14, 1.238499999999993939, 10.00000000000000000 ) ) ;
#262 = CIRCLE ( 'NONE', #268, 1.084999999999999076 ) ;
#263 = DIRECTION ( 'NONE',  ( -4.275831445896958607E-31, -1.000000000000000000, -1.224646799147353207E-16 ) ) ;
#264 = PRODUCT_DEFINITION_FORMATION_WITH_SPECIFIED_SOURCE ( 'ANY', '', #285, .NOT_KNOWN. ) ;
#265 = DIRECTION ( 'NONE',  ( 0.0000000000000000000, 1.000000000000000000, 0.0000000000000000000 ) ) ;
#266 = DIRECTION ( 'NONE',  ( 4.275831445896958607E-31, 1.000000000000000000, 1.224646799147353207E-16 ) ) ;
#267 = PLANE ( 'NONE',  #142 ) ;
#268 = AXIS2_PLACEMENT_3D ( 'NONE', #246, #199, #240 ) ;
#269 = ORIENTED_EDGE ( 'NONE', *, *, #152, .T. ) ;
#270 = DIRECTION ( 'NONE',  ( -3.491481338843133355E-15, 1.224646799147353207E-16, -1.000000000000000000 ) ) ;
#271 = DIRECTION ( 'NONE',  ( 4.275831445896958607E-31, 1.000000000000000000, 1.224646799147353207E-16 ) ) ;
#272 = ADVANCED_FACE ( 'NONE', ( #143 ), #164, .T. ) ;
#273 = COORDINATED_UNIVERSAL_TIME_OFFSET ( 1, 0, .AHEAD. ) ;
#274 = APPROVAL_ROLE ( '' ) ;
#275 = APPROVAL_DATE_TIME ( #155, #137 ) ;
#276 =( NAMED_UNIT ( * ) PLANE_ANGLE_UNIT ( ) SI_UNIT ( $, .RADIAN. ) );
#277 = CC_DESIGN_PERSON_AND_ORGANIZATION_ASSIGNMENT ( #254, #228, ( #264 ) ) ;
#278 = COORDINATED_UNIVERSAL_TIME_OFFSET ( 1, 0, .AHEAD. ) ;
#279 = EDGE_LOOP ( 'NONE', ( #236 ) ) ;
#280 = LOCAL_TIME ( 7, 45, 13.00000000000000000, #202 ) ;
#281 = DIRECTION ( 'NONE',  ( -4.275831445896958607E-31, -1.000000000000000000, -1.224646799147353207E-16 ) ) ;
#282 = EDGE_LOOP ( 'NONE', ( #234 ) ) ;
#283 = CARTESIAN_POINT ( 'NONE',  ( 7.865804432479902713E-14, 1.499999999999994005, 22.52855928219326032 ) ) ;
#284 = VERTEX_POINT ( 'NONE', #74 ) ;
#285 = PRODUCT ( '959535', '959535', '', ( #87 ) ) ;
#286 = DIRECTION ( 'NONE',  ( -3.491481338843133355E-15, 1.224646799147353207E-16, -1.000000000000000000 ) ) ;
#287 = CARTESIAN_POINT ( 'NONE',  ( 1.745740669421566678E-13, 8.998558695971067645E-33, 50.00000000000000000 ) ) ;
#288 = CARTESIAN_POINT ( 'NONE',  ( 1.745740669421566678E-13, -6.123233995736766085E-15, 50.00000000000000000 ) ) ;
#289 = CARTESIAN_POINT ( 'NONE',  ( 7.865804432479902713E-14, -2.758952801433937201E-15, 22.52855928219326032 ) ) ;
#290 = DIRECTION ( 'NONE',  ( 3.491481338843133355E-15, -1.224646799147353207E-16, 1.000000000000000000 ) ) ;
#291 = AXIS2_PLACEMENT_3D ( 'NONE', #30, #286, #79 ) ;
#292 = FACE_OUTER_BOUND ( 'NONE', #187, .T. ) ;
#293 = FACE_OUTER_BOUND ( 'NONE', #107, .T. ) ;
#294 = ADVANCED_FACE ( 'NONE', ( #238 ), #255, .F. ) ;
#295 = AXIS2_PLACEMENT_3D ( 'NONE', #97, #188, #259 ) ;
#296 = DATE_AND_TIME ( #19, #280 ) ;
#297 = CIRCLE ( 'NONE', #165, 1.500000000000001554 ) ;
#298 = MANIFOLD_SOLID_BREP ( 'Corps-Déplacer/Copier1[2]', #211 ) ;
#299 =( GEOMETRIC_REPRESENTATION_CONTEXT ( 3 ) GLOBAL_UNCERTAINTY_ASSIGNED_CONTEXT ( ( #63 ) ) GLOBAL_UNIT_ASSIGNED_CONTEXT ( ( #53, #276, #112 ) ) REPRESENTATION_CONTEXT ( 'NONE', 'WORKASPACE' ) );
#300 = PERSON_AND_ORGANIZATION ( #108, #225 ) ;
#301 = PERSON_AND_ORGANIZATION ( #108, #225 ) ;
#302 = CARTESIAN_POINT ( 'NONE',  ( 3.491481338843133355E-14, 9.287262454133498690E-33, 10.00000000000000000 ) ) ;
#303 = ORIENTED_EDGE ( 'NONE', *, *, #32, .F. ) ;
ENDSEC;
END-ISO-10303-21;
