ISO-10303-21;
HEADER;
FILE_DESCRIPTION (( 'STEP AP203' ),
    '1' );
FILE_NAME ('959472.step',
    '2021-11-29T14:58:44',
    ( '' ),
    ( '' ),
    'SwSTEP 2.0',
    'SolidWorks 2019',
    '' );
FILE_SCHEMA (( 'CONFIG_CONTROL_DESIGN' ));
ENDSEC;

DATA;
#1 = EDGE_LOOP ( 'NONE', ( #97 ) ) ;
#2 = CALENDAR_DATE ( 2021, 29, 11 ) ;
#3 = PERSON_AND_ORGANIZATION_ROLE ( 'creator' ) ;
#4 = ORIENTED_EDGE ( 'NONE', *, *, #277, .T. ) ;
#5 = SHAPE_DEFINITION_REPRESENTATION ( #127, #116 ) ;
#6 = CALENDAR_DATE ( 2021, 29, 11 ) ;
#7 = APPROVAL_PERSON_ORGANIZATION ( #263, #185, #264 ) ;
#8 = AXIS2_PLACEMENT_3D ( 'NONE', #55, #202, #154 ) ;
#9 = FACE_OUTER_BOUND ( 'NONE', #101, .T. ) ;
#10 = EDGE_CURVE ( 'NONE', #141, #141, #173, .T. ) ;
#11 = DIRECTION ( 'NONE',  ( 0.0000000000000000000, 1.000000000000000000, 0.0000000000000000000 ) ) ;
#12 = DIRECTION ( 'NONE',  ( -4.275831445896957731E-31, -1.000000000000000000, -1.224646799147352961E-16 ) ) ;
#13 = CIRCLE ( 'NONE', #93, 1.499999999999997558 ) ;
#14 = DIRECTION ( 'NONE',  ( -2.924722770519724064E-31, -1.000000000000000000, -8.232362737171646236E-17 ) ) ;
#15 = CARTESIAN_POINT ( 'NONE',  ( 2.094888803305880013E-14, 4.937959084414152407E-33, 6.000000000000000000 ) ) ;
#16 = ADVANCED_FACE ( 'NONE', ( #182 ), #129, .T. ) ;
#17 = VERTEX_POINT ( 'NONE', #162 ) ;
#18 = CC_DESIGN_PERSON_AND_ORGANIZATION_ASSIGNMENT ( #222, #168, ( #142 ) ) ;
#19 = CARTESIAN_POINT ( 'NONE',  ( 2.094888803305880013E-14, -7.347880794884118750E-16, 6.000000000000000000 ) ) ;
#20 = CLOSED_SHELL ( 'NONE', ( #227, #36, #152, #16 ) ) ;
#21 = EDGE_CURVE ( 'NONE', #17, #17, #292, .T. ) ;
#22 = DIRECTION ( 'NONE',  ( 4.275831445896957731E-31, 1.000000000000000000, 1.224646799147352961E-16 ) ) ;
#23 = DIRECTION ( 'NONE',  ( 4.275831445896957731E-31, 1.000000000000000000, 1.224646799147352961E-16 ) ) ;
#24 = CARTESIAN_POINT ( 'NONE',  ( 4.538925740496073993E-14, 0.5749999999999982903, 13.00000000000000178 ) ) ;
#25 = VERTEX_POINT ( 'NONE', #259 ) ;
#26 = PERSON_AND_ORGANIZATION ( #44, #78 ) ;
#27 = PERSON_AND_ORGANIZATION ( #44, #78 ) ;
#28 = CIRCLE ( 'NONE', #138, 0.5749999999999989564 ) ;
#29 = APPROVAL_ROLE ( '' ) ;
#30 = COORDINATED_UNIVERSAL_TIME_OFFSET ( 1, 0, .AHEAD. ) ;
#31 = CC_DESIGN_APPROVAL ( #239, ( #142 ) ) ;
#32 = AXIS2_PLACEMENT_3D ( 'NONE', #180, #58, #11 ) ;
#33 = EDGE_LOOP ( 'NONE', ( #195 ) ) ;
#34 = CARTESIAN_POINT ( 'NONE',  ( 8.728703347107833388E-16, -3.061616997868382402E-17, 0.2500000000000000000 ) ) ;
#35 = DIRECTION ( 'NONE',  ( -3.491481338843133355E-15, 1.224646799147352961E-16, -1.000000000000000000 ) ) ;
#36 = ADVANCED_FACE ( 'NONE', ( #265, #56 ), #273, .T. ) ;
#37 = ORIENTED_EDGE ( 'NONE', *, *, #21, .T. ) ;
#38 = DIRECTION ( 'NONE',  ( 4.275831445896957731E-31, 1.000000000000000000, 1.224646799147352961E-16 ) ) ;
#39 = CARTESIAN_POINT ( 'NONE',  ( 4.538925740496073362E-14, -1.734723475976807094E-15, 13.00000000000000000 ) ) ;
#40 = ADVANCED_FACE ( 'NONE', ( #9, #106 ), #193, .T. ) ;
#41 = CC_DESIGN_APPROVAL ( #271, ( #77 ) ) ;
#42 = VERTEX_POINT ( 'NONE', #24 ) ;
#43 = AXIS2_PLACEMENT_3D ( 'NONE', #164, #212, #38 ) ;
#44 = PERSON ( 'UNSPECIFIED', 'UNSPECIFIED', 'UNSPECIFIED', ('UNSPECIFIED'), ('UNSPECIFIED'), ('UNSPECIFIED') ) ;
#45 = DIRECTION ( 'NONE',  ( 2.924722770519724064E-31, 1.000000000000000000, 8.232362737171646236E-17 ) ) ;
#46 = ADVANCED_FACE ( 'NONE', ( #294, #225 ), #270, .T. ) ;
#47 = APPLICATION_PROTOCOL_DEFINITION ( 'international standard', 'config_control_design', 1994, #165 ) ;
#48 = AXIS2_PLACEMENT_3D ( 'NONE', #34, #53, #14 ) ;
#49 = CIRCLE ( 'NONE', #32, 0.6053844939755808063 ) ;
#50 = EDGE_LOOP ( 'NONE', ( #249 ) ) ;
#51 = EDGE_CURVE ( 'NONE', #275, #275, #49, .T. ) ;
#52 = ORIENTED_EDGE ( 'NONE', *, *, #235, .F. ) ;
#53 = DIRECTION ( 'NONE',  ( 3.491481338843133355E-15, -1.224646799147352961E-16, 1.000000000000000000 ) ) ;
#54 = CLOSED_SHELL ( 'NONE', ( #94, #84, #46, #268, #256, #57, #40, #296 ) ) ;
#55 = CARTESIAN_POINT ( 'NONE',  ( 0.0000000000000000000, 0.0000000000000000000, 0.0000000000000000000 ) ) ;
#56 = FACE_OUTER_BOUND ( 'NONE', #229, .T. ) ;
#57 = ADVANCED_FACE ( 'NONE', ( #204, #295 ), #178, .T. ) ;
#58 = DIRECTION ( 'NONE',  ( -3.491481338843133355E-15, 1.224646799147352961E-16, -1.000000000000000000 ) ) ;
#59 = AXIS2_PLACEMENT_3D ( 'NONE', #137, #231, #22 ) ;
#60 = DIRECTION ( 'NONE',  ( -3.491481338843133355E-15, 1.224646799147352961E-16, -1.000000000000000000 ) ) ;
#61 = DIRECTION ( 'NONE',  ( -3.491481338843133355E-15, 1.224646799147352961E-16, -1.000000000000000000 ) ) ;
#62 = FACE_OUTER_BOUND ( 'NONE', #169, .T. ) ;
#63 = DIRECTION ( 'NONE',  ( -3.491481338843133355E-15, 1.224646799147352961E-16, -1.000000000000000000 ) ) ;
#64 = TOROIDAL_SURFACE ( 'NONE', #70, 2.575000000000000178, 2.000000000000000444 ) ;
#65 = CARTESIAN_POINT ( 'NONE',  ( 1.316288464743861212E-13, 1.499999999999998668, 37.69999999999999574 ) ) ;
#66 = CARTESIAN_POINT ( 'NONE',  ( 4.660183614865709749E-14, 0.6053844939755792520, 13.34729635533384773 ) ) ;
#67 = CARTESIAN_POINT ( 'NONE',  ( 2.145384785961714777E-14, 0.5749999999999981792, 6.144626242432005725 ) ) ;
#68 = LOCAL_TIME ( 15, 58, 44.00000000000000000, #30 ) ;
#69 = EDGE_LOOP ( 'NONE', ( #199 ) ) ;
#70 = AXIS2_PLACEMENT_3D ( 'NONE', #39, #257, #230 ) ;
#71 =( NAMED_UNIT ( * ) SI_UNIT ( $, .STERADIAN. ) SOLID_ANGLE_UNIT ( ) );
#72 = EDGE_CURVE ( 'NONE', #115, #115, #13, .T. ) ;
#73 = ORIENTED_EDGE ( 'NONE', *, *, #235, .T. ) ;
#74 = PERSON_AND_ORGANIZATION ( #44, #78 ) ;
#75 = ORIENTED_EDGE ( 'NONE', *, *, #148, .F. ) ;
#76 = DATE_AND_TIME ( #126, #146 ) ;
#77 = PRODUCT_DEFINITION ( 'UNKNOWN', '', #142, #111 ) ;
#78 = ORGANIZATION ( 'UNSPECIFIED', 'UNSPECIFIED', '' ) ;
#79 = ORIENTED_EDGE ( 'NONE', *, *, #110, .T. ) ;
#80 = ORIENTED_EDGE ( 'NONE', *, *, #110, .F. ) ;
#81 = CARTESIAN_POINT ( 'NONE',  ( 2.094888803305880013E-14, -7.347880794884118750E-16, 6.000000000000000000 ) ) ;
#82 =( GEOMETRIC_REPRESENTATION_CONTEXT ( 3 ) GLOBAL_UNCERTAINTY_ASSIGNED_CONTEXT ( ( #297 ) ) GLOBAL_UNIT_ASSIGNED_CONTEXT ( ( #121, #284, #71 ) ) REPRESENTATION_CONTEXT ( 'NONE', 'WORKASPACE' ) );
#83 = DIRECTION ( 'NONE',  ( 0.0000000000000000000, 1.000000000000000000, 0.0000000000000000000 ) ) ;
#84 = ADVANCED_FACE ( 'NONE', ( #179, #133 ), #283, .T. ) ;
#85 = DIRECTION ( 'NONE',  ( 0.0000000000000000000, 1.000000000000000000, 0.0000000000000000000 ) ) ;
#86 = ORIENTED_EDGE ( 'NONE', *, *, #72, .T. ) ;
#87 = CIRCLE ( 'NONE', #299, 1.200000000000003286 ) ;
#88 = DIRECTION ( 'NONE',  ( 0.0000000000000000000, 1.000000000000000000, 0.0000000000000000000 ) ) ;
#89 = DIRECTION ( 'NONE',  ( 0.0000000000000000000, 1.000000000000000000, 0.0000000000000000000 ) ) ;
#90 = PLANE ( 'NONE',  #43 ) ;
#91 = LOCAL_TIME ( 15, 58, 44.00000000000000000, #282 ) ;
#92 = FACE_OUTER_BOUND ( 'NONE', #150, .T. ) ;
#93 = AXIS2_PLACEMENT_3D ( 'NONE', #247, #35, #83 ) ;
#94 = ADVANCED_FACE ( 'NONE', ( #269 ), #134, .F. ) ;
#95 = DIRECTION ( 'NONE',  ( -3.491481338843133355E-15, 1.224646799147352961E-16, -1.000000000000000000 ) ) ;
#96 = APPROVAL_STATUS ( 'not_yet_approved' ) ;
#97 = ORIENTED_EDGE ( 'NONE', *, *, #72, .F. ) ;
#98 = CIRCLE ( 'NONE', #59, 0.5141624327025947627 ) ;
#99 = DATE_TIME_ROLE ( 'classification_date' ) ;
#100 = PERSON_AND_ORGANIZATION ( #44, #78 ) ;
#101 = EDGE_LOOP ( 'NONE', ( #290 ) ) ;
#102 = DATE_AND_TIME ( #6, #197 ) ;
#103 = LOCAL_TIME ( 15, 58, 44.00000000000000000, #122 ) ;
#104 = ORIENTED_EDGE ( 'NONE', *, *, #203, .F. ) ;
#105 = DIRECTION ( 'NONE',  ( 4.275831445896957731E-31, 1.000000000000000000, 1.224646799147352961E-16 ) ) ;
#106 = FACE_BOUND ( 'NONE', #171, .T. ) ;
#107 = ORIENTED_EDGE ( 'NONE', *, *, #51, .T. ) ;
#108 = EDGE_LOOP ( 'NONE', ( #4 ) ) ;
#109 = DIRECTION ( 'NONE',  ( -3.491481338843133355E-15, 1.224646799147352961E-16, -1.000000000000000000 ) ) ;
#110 = EDGE_CURVE ( 'NONE', #139, #139, #266, .T. ) ;
#111 = DESIGN_CONTEXT ( 'detailed design', #215, 'design' ) ;
#112 = DIRECTION ( 'NONE',  ( 0.0000000000000000000, 1.000000000000000000, 0.0000000000000000000 ) ) ;
#113 = CIRCLE ( 'NONE', #220, 0.5749999999999998446 ) ;
#114 = DIRECTION ( 'NONE',  ( -4.275831445896957731E-31, -1.000000000000000000, -1.224646799147352961E-16 ) ) ;
#115 = VERTEX_POINT ( 'NONE', #300 ) ;
#116 = ADVANCED_BREP_SHAPE_REPRESENTATION ( '959472', ( #213, #209, #237 ), #82 ) ;
#117 = EDGE_CURVE ( 'NONE', #42, #42, #113, .T. ) ;
#118 = CYLINDRICAL_SURFACE ( 'NONE', #198, 0.6584999999999995302 ) ;
#119 = CARTESIAN_POINT ( 'NONE',  ( 2.094888803305880013E-14, 0.6584999999999991971, 6.000000000000000000 ) ) ;
#120 = CIRCLE ( 'NONE', #131, 0.6584999999999998632 ) ;
#121 =( LENGTH_UNIT ( ) NAMED_UNIT ( * ) SI_UNIT ( .MILLI., .METRE. ) );
#122 = COORDINATED_UNIVERSAL_TIME_OFFSET ( 1, 0, .AHEAD. ) ;
#123 = CARTESIAN_POINT ( 'NONE',  ( 0.0000000000000000000, 0.0000000000000000000, 0.0000000000000000000 ) ) ;
#124 = PERSON_AND_ORGANIZATION_ROLE ( 'classification_officer' ) ;
#125 = EDGE_LOOP ( 'NONE', ( #286 ) ) ;
#126 = CALENDAR_DATE ( 2021, 29, 11 ) ;
#127 = PRODUCT_DEFINITION_SHAPE ( 'NONE', 'NONE',  #77 ) ;
#128 = DATE_AND_TIME ( #221, #91 ) ;
#129 = PLANE ( 'NONE',  #223 ) ;
#130 = PRODUCT_RELATED_PRODUCT_CATEGORY ( 'detail', '', ( #252 ) ) ;
#131 = AXIS2_PLACEMENT_3D ( 'NONE', #19, #159, #88 ) ;
#132 = CARTESIAN_POINT ( 'NONE',  ( 1.326762908760390423E-13, -4.653657836759941152E-15, 38.00000000000000000 ) ) ;
#133 = FACE_BOUND ( 'NONE', #151, .T. ) ;
#134 = PLANE ( 'NONE',  #143 ) ;
#135 = ORIENTED_EDGE ( 'NONE', *, *, #117, .F. ) ;
#136 = CARTESIAN_POINT ( 'NONE',  ( 8.728703347107833388E-16, -3.061616997868382402E-17, 0.2500000000000000000 ) ) ;
#137 = CARTESIAN_POINT ( 'NONE',  ( -4.091207724431794164E-31, 1.435002498404425041E-32, -1.171768463693801093E-16 ) ) ;
#138 = AXIS2_PLACEMENT_3D ( 'NONE', #253, #186, #205 ) ;
#139 = VERTEX_POINT ( 'NONE', #236 ) ;
#140 = CARTESIAN_POINT ( 'NONE',  ( 0.0000000000000000000, 0.0000000000000000000, 0.0000000000000000000 ) ) ;
#141 = VERTEX_POINT ( 'NONE', #65 ) ;
#142 = PRODUCT_DEFINITION_FORMATION_WITH_SPECIFIED_SOURCE ( 'ANY', '', #252, .NOT_KNOWN. ) ;
#143 = AXIS2_PLACEMENT_3D ( 'NONE', #158, #276, #114 ) ;
#144 = DIRECTION ( 'NONE',  ( 1.000000000000000000, 0.0000000000000000000, 0.0000000000000000000 ) ) ;
#145 = APPROVAL_DATE_TIME ( #128, #185 ) ;
#146 = LOCAL_TIME ( 15, 58, 44.00000000000000000, #261 ) ;
#147 = AXIS2_PLACEMENT_3D ( 'NONE', #81, #228, #251 ) ;
#148 = EDGE_CURVE ( 'NONE', #274, #274, #120, .T. ) ;
#149 = EDGE_LOOP ( 'NONE', ( #75 ) ) ;
#150 = EDGE_LOOP ( 'NONE', ( #80 ) ) ;
#151 = EDGE_LOOP ( 'NONE', ( #73 ) ) ;
#152 = ADVANCED_FACE ( 'NONE', ( #92, #160 ), #118, .T. ) ;
#153 = AXIS2_PLACEMENT_3D ( 'NONE', #278, #279, #207 ) ;
#154 = DIRECTION ( 'NONE',  ( 4.275831445896957731E-31, 1.000000000000000000, 1.224646799147353207E-16 ) ) ;
#155 = DIRECTION ( 'NONE',  ( -3.491481338843133355E-15, 1.224646799147352961E-16, -1.000000000000000000 ) ) ;
#156 = ORIENTED_EDGE ( 'NONE', *, *, #117, .T. ) ;
#157 = AXIS2_PLACEMENT_3D ( 'NONE', #132, #109, #248 ) ;
#158 = CARTESIAN_POINT ( 'NONE',  ( 2.094888803305880013E-14, 4.937959084414152407E-33, 6.000000000000000000 ) ) ;
#159 = DIRECTION ( 'NONE',  ( -3.491481338843133355E-15, 1.224646799147352961E-16, -1.000000000000000000 ) ) ;
#160 = FACE_OUTER_BOUND ( 'NONE', #243, .T. ) ;
#161 = CARTESIAN_POINT ( 'NONE',  ( 4.538925740496073993E-14, -1.592040838891558898E-15, 13.00000000000000178 ) ) ;
#162 = CARTESIAN_POINT ( 'NONE',  ( 2.094888803305880013E-14, 0.6584999999999991971, 6.000000000000000000 ) ) ;
#163 = CC_DESIGN_PERSON_AND_ORGANIZATION_ASSIGNMENT ( #100, #287, ( #77 ) ) ;
#164 = CARTESIAN_POINT ( 'NONE',  ( 1.326762908760390423E-13, 8.998558695971099120E-33, 38.00000000000000000 ) ) ;
#165 = APPLICATION_CONTEXT ( 'configuration controlled 3d designs of mechanical parts and assemblies' ) ;
#166 = APPROVAL_PERSON_ORGANIZATION ( #196, #239, #29 ) ;
#167 = APPLICATION_PROTOCOL_DEFINITION ( 'international standard', 'config_control_design', 1994, #215 ) ;
#168 = PERSON_AND_ORGANIZATION_ROLE ( 'design_supplier' ) ;
#169 = EDGE_LOOP ( 'NONE', ( #104 ) ) ;
#170 = APPROVAL_DATE_TIME ( #76, #239 ) ;
#171 = EDGE_LOOP ( 'NONE', ( #192 ) ) ;
#172 = COORDINATED_UNIVERSAL_TIME_OFFSET ( 1, 0, .AHEAD. ) ;
#173 = CIRCLE ( 'NONE', #201, 1.500000000000003331 ) ;
#174 = DATE_TIME_ROLE ( 'creation_date' ) ;
#175 = APPROVAL_STATUS ( 'not_yet_approved' ) ;
#176 = ORIENTED_EDGE ( 'NONE', *, *, #277, .F. ) ;
#177 = CC_DESIGN_PERSON_AND_ORGANIZATION_ASSIGNMENT ( #27, #124, ( #281 ) ) ;
#178 = CYLINDRICAL_SURFACE ( 'NONE', #8, 1.500000000000000444 ) ;
#179 = FACE_OUTER_BOUND ( 'NONE', #149, .T. ) ;
#180 = CARTESIAN_POINT ( 'NONE',  ( 4.660183614865709749E-14, -1.634572375883072611E-15, 13.34729635533384773 ) ) ;
#181 = CC_DESIGN_PERSON_AND_ORGANIZATION_ASSIGNMENT ( #26, #214, ( #252 ) ) ;
#182 = FACE_OUTER_BOUND ( 'NONE', #50, .T. ) ;
#183 = CC_DESIGN_APPROVAL ( #185, ( #281 ) ) ;
#184 = AXIS2_PLACEMENT_3D ( 'NONE', #272, #291, #105 ) ;
#185 = APPROVAL ( #289, 'UNSPECIFIED' ) ;
#186 = DIRECTION ( 'NONE',  ( -3.491481338843133355E-15, 1.224646799147352961E-16, -1.000000000000000000 ) ) ;
#187 = DIRECTION ( 'NONE',  ( -4.275831445896957731E-31, -1.000000000000000000, -1.224646799147352961E-16 ) ) ;
#188 = DIRECTION ( 'NONE',  ( 3.491481338843133355E-15, -1.224646799147352961E-16, 1.000000000000000000 ) ) ;
#189 = CARTESIAN_POINT ( 'NONE',  ( -2.045603862215897082E-31, 7.175012492022125206E-33, -5.858842318469005467E-17 ) ) ;
#190 = CC_DESIGN_PERSON_AND_ORGANIZATION_ASSIGNMENT ( #74, #3, ( #142 ) ) ;
#191 = VERTEX_POINT ( 'NONE', #67 ) ;
#192 = ORIENTED_EDGE ( 'NONE', *, *, #203, .T. ) ;
#193 = CONICAL_SURFACE ( 'NONE', #157, 1.200000000000003286, 0.7853981633974453924 ) ;
#194 = CALENDAR_DATE ( 2021, 29, 11 ) ;
#195 = ORIENTED_EDGE ( 'NONE', *, *, #10, .T. ) ;
#196 = PERSON_AND_ORGANIZATION ( #44, #78 ) ;
#197 = LOCAL_TIME ( 15, 58, 44.00000000000000000, #172 ) ;
#198 = AXIS2_PLACEMENT_3D ( 'NONE', #140, #61, #23 ) ;
#199 = ORIENTED_EDGE ( 'NONE', *, *, #51, .F. ) ;
#200 = EDGE_LOOP ( 'NONE', ( #176 ) ) ;
#201 = AXIS2_PLACEMENT_3D ( 'NONE', #224, #155, #85 ) ;
#202 = DIRECTION ( 'NONE',  ( -3.491481338843133355E-15, 1.224646799147352961E-16, -1.000000000000000000 ) ) ;
#203 = EDGE_CURVE ( 'NONE', #233, #233, #87, .T. ) ;
#204 = FACE_OUTER_BOUND ( 'NONE', #1, .T. ) ;
#205 = DIRECTION ( 'NONE',  ( 0.0000000000000000000, 1.000000000000000000, 0.0000000000000000000 ) ) ;
#206 = CC_DESIGN_SECURITY_CLASSIFICATION ( #281, ( #142 ) ) ;
#207 = DIRECTION ( 'NONE',  ( 0.0000000000000000000, -1.000000000000000000, 0.0000000000000000000 ) ) ;
#208 = CARTESIAN_POINT ( 'NONE',  ( 1.326762908760390423E-13, 1.199999999999998845, 38.00000000000000000 ) ) ;
#209 = MANIFOLD_SOLID_BREP ( 'Corps-Déplacer/Copier1[2]', #20 ) ;
#210 = FACE_OUTER_BOUND ( 'NONE', #262, .T. ) ;
#211 = CONICAL_SURFACE ( 'NONE', #153, 1.499999999999997558, 0.1745329251994260089 ) ;
#212 = DIRECTION ( 'NONE',  ( -3.491481338843133355E-15, 1.224646799147352961E-16, -1.000000000000000000 ) ) ;
#213 = MANIFOLD_SOLID_BREP ( 'Corps-Déplacer/Copier1[1]', #54 ) ;
#214 = PERSON_AND_ORGANIZATION_ROLE ( 'design_owner' ) ;
#215 = APPLICATION_CONTEXT ( 'configuration controlled 3d designs of mechanical parts and assemblies' ) ;
#216 = DATE_AND_TIME ( #2, #103 ) ;
#217 = APPROVAL_ROLE ( '' ) ;
#218 = DATE_AND_TIME ( #194, #68 ) ;
#219 = DIRECTION ( 'NONE',  ( 0.0000000000000000000, 0.0000000000000000000, 1.000000000000000000 ) ) ;
#220 = AXIS2_PLACEMENT_3D ( 'NONE', #161, #255, #112 ) ;
#221 = CALENDAR_DATE ( 2021, 29, 11 ) ;
#222 = PERSON_AND_ORGANIZATION ( #44, #78 ) ;
#223 = AXIS2_PLACEMENT_3D ( 'NONE', #15, #267, #12 ) ;
#224 = CARTESIAN_POINT ( 'NONE',  ( 1.316288464743861212E-13, -4.616918432785520292E-15, 37.69999999999999574 ) ) ;
#225 = FACE_OUTER_BOUND ( 'NONE', #280, .T. ) ;
#226 = DIRECTION ( 'NONE',  ( 0.0000000000000000000, 1.000000000000000000, 0.0000000000000000000 ) ) ;
#227 = ADVANCED_FACE ( 'NONE', ( #301 ), #298, .F. ) ;
#228 = DIRECTION ( 'NONE',  ( -3.491481338843133355E-15, 1.224646799147352961E-16, -1.000000000000000000 ) ) ;
#229 = EDGE_LOOP ( 'NONE', ( #79 ) ) ;
#230 = DIRECTION ( 'NONE',  ( 4.275831445896957731E-31, 1.000000000000000000, 1.224646799147352961E-16 ) ) ;
#231 = DIRECTION ( 'NONE',  ( -3.491481338843133355E-15, 1.224646799147352961E-16, -1.000000000000000000 ) ) ;
#232 = CC_DESIGN_DATE_AND_TIME_ASSIGNMENT ( #102, #99, ( #281 ) ) ;
#233 = VERTEX_POINT ( 'NONE', #208 ) ;
#234 = FACE_BOUND ( 'NONE', #69, .T. ) ;
#235 = EDGE_CURVE ( 'NONE', #191, #191, #28, .T. ) ;
#236 = CARTESIAN_POINT ( 'NONE',  ( 8.728703347107835360E-16, 0.6584999999999991971, 0.2500000000000000555 ) ) ;
#237 = AXIS2_PLACEMENT_3D ( 'NONE', #123, #219, #144 ) ;
#238 = PERSON_AND_ORGANIZATION ( #44, #78 ) ;
#239 = APPROVAL ( #175, 'UNSPECIFIED' ) ;
#240 = MECHANICAL_CONTEXT ( 'NONE', #165, 'mechanical' ) ;
#241 = APPROVAL_DATE_TIME ( #216, #271 ) ;
#242 = EDGE_LOOP ( 'NONE', ( #107 ) ) ;
#243 = EDGE_LOOP ( 'NONE', ( #37 ) ) ;
#244 = APPROVAL_PERSON_ORGANIZATION ( #238, #271, #217 ) ;
#245 = AXIS2_PLACEMENT_3D ( 'NONE', #189, #188, #187 ) ;
#246 = EDGE_LOOP ( 'NONE', ( #135 ) ) ;
#247 = CARTESIAN_POINT ( 'NONE',  ( 6.431627401956049346E-14, -2.255911215531133132E-15, 18.42091301019842575 ) ) ;
#248 = DIRECTION ( 'NONE',  ( 0.0000000000000000000, 1.000000000000000000, 0.0000000000000000000 ) ) ;
#249 = ORIENTED_EDGE ( 'NONE', *, *, #21, .F. ) ;
#250 = AXIS2_PLACEMENT_3D ( 'NONE', #293, #60, #226 ) ;
#251 = DIRECTION ( 'NONE',  ( 0.0000000000000000000, 1.000000000000000000, 0.0000000000000000000 ) ) ;
#252 = PRODUCT ( '959472', '959472', '', ( #240 ) ) ;
#253 = CARTESIAN_POINT ( 'NONE',  ( 2.145384785961714777E-14, -7.524996859751182203E-16, 6.144626242432005725 ) ) ;
#254 = FACE_OUTER_BOUND ( 'NONE', #246, .T. ) ;
#255 = DIRECTION ( 'NONE',  ( -3.491481338843133355E-15, 1.224646799147352961E-16, -1.000000000000000000 ) ) ;
#256 = ADVANCED_FACE ( 'NONE', ( #234, #210 ), #211, .T. ) ;
#257 = DIRECTION ( 'NONE',  ( -3.491481338843133355E-15, 1.224646799147352961E-16, -1.000000000000000000 ) ) ;
#258 = AXIS2_PLACEMENT_3D ( 'NONE', #136, #63, #45 ) ;
#259 = CARTESIAN_POINT ( 'NONE',  ( -1.892735826383161356E-31, 0.5141624327025947627, -5.421010862427522170E-17 ) ) ;
#260 = CC_DESIGN_DATE_AND_TIME_ASSIGNMENT ( #218, #174, ( #77 ) ) ;
#261 = COORDINATED_UNIVERSAL_TIME_OFFSET ( 1, 0, .AHEAD. ) ;
#262 = EDGE_LOOP ( 'NONE', ( #86 ) ) ;
#263 = PERSON_AND_ORGANIZATION ( #44, #78 ) ;
#264 = APPROVAL_ROLE ( '' ) ;
#265 = FACE_BOUND ( 'NONE', #200, .T. ) ;
#266 = CIRCLE ( 'NONE', #258, 0.6584999999999991971 ) ;
#267 = DIRECTION ( 'NONE',  ( 3.491481338843133355E-15, -1.224646799147352961E-16, 1.000000000000000000 ) ) ;
#268 = ADVANCED_FACE ( 'NONE', ( #254, #302 ), #64, .F. ) ;
#269 = FACE_OUTER_BOUND ( 'NONE', #125, .T. ) ;
#270 = CYLINDRICAL_SURFACE ( 'NONE', #184, 0.5749999999999992895 ) ;
#271 = APPROVAL ( #96, 'UNSPECIFIED' ) ;
#272 = CARTESIAN_POINT ( 'NONE',  ( 0.0000000000000000000, 0.0000000000000000000, 0.0000000000000000000 ) ) ;
#273 = CONICAL_SURFACE ( 'NONE', #48, 0.6584999999999991971, 0.5235987755982924874 ) ;
#274 = VERTEX_POINT ( 'NONE', #119 ) ;
#275 = VERTEX_POINT ( 'NONE', #66 ) ;
#276 = DIRECTION ( 'NONE',  ( 3.491481338843133355E-15, -1.224646799147352961E-16, 1.000000000000000000 ) ) ;
#277 = EDGE_CURVE ( 'NONE', #25, #25, #98, .T. ) ;
#278 = CARTESIAN_POINT ( 'NONE',  ( 6.431627401956049346E-14, -2.255911215531133132E-15, 18.42091301019842575 ) ) ;
#279 = DIRECTION ( 'NONE',  ( 3.491481338843133355E-15, -1.224646799147352961E-16, 1.000000000000000000 ) ) ;
#280 = EDGE_LOOP ( 'NONE', ( #156 ) ) ;
#281 = SECURITY_CLASSIFICATION ( '', '', #285 ) ;
#282 = COORDINATED_UNIVERSAL_TIME_OFFSET ( 1, 0, .AHEAD. ) ;
#283 = CONICAL_SURFACE ( 'NONE', #250, 0.5749999999999989564, 0.5235987755982923764 ) ;
#284 =( NAMED_UNIT ( * ) PLANE_ANGLE_UNIT ( ) SI_UNIT ( $, .RADIAN. ) );
#285 = SECURITY_CLASSIFICATION_LEVEL ( 'unclassified' ) ;
#286 = ORIENTED_EDGE ( 'NONE', *, *, #148, .T. ) ;
#287 = PERSON_AND_ORGANIZATION_ROLE ( 'creator' ) ;
#288 = EDGE_LOOP ( 'NONE', ( #52 ) ) ;
#289 = APPROVAL_STATUS ( 'not_yet_approved' ) ;
#290 = ORIENTED_EDGE ( 'NONE', *, *, #10, .F. ) ;
#291 = DIRECTION ( 'NONE',  ( -3.491481338843133355E-15, 1.224646799147352961E-16, -1.000000000000000000 ) ) ;
#292 = CIRCLE ( 'NONE', #147, 0.6584999999999998632 ) ;
#293 = CARTESIAN_POINT ( 'NONE',  ( 2.145384785961714777E-14, -7.524996859751182203E-16, 6.144626242432005725 ) ) ;
#294 = FACE_OUTER_BOUND ( 'NONE', #288, .T. ) ;
#295 = FACE_OUTER_BOUND ( 'NONE', #33, .T. ) ;
#296 = ADVANCED_FACE ( 'NONE', ( #62 ), #90, .F. ) ;
#297 = UNCERTAINTY_MEASURE_WITH_UNIT (LENGTH_MEASURE( 1.000000000000000082E-05 ), #121, 'distance_accuracy_value', 'NONE');
#298 = PLANE ( 'NONE',  #245 ) ;
#299 = AXIS2_PLACEMENT_3D ( 'NONE', #303, #95, #89 ) ;
#300 = CARTESIAN_POINT ( 'NONE',  ( 6.431627401956049346E-14, 1.499999999999995559, 18.42091301019842575 ) ) ;
#301 = FACE_OUTER_BOUND ( 'NONE', #108, .T. ) ;
#302 = FACE_OUTER_BOUND ( 'NONE', #242, .T. ) ;
#303 = CARTESIAN_POINT ( 'NONE',  ( 1.326762908760390423E-13, -4.653657836759941152E-15, 38.00000000000000000 ) ) ;
ENDSEC;
END-ISO-10303-21;
