ISO-10303-21;
HEADER;
FILE_DESCRIPTION (( 'STEP AP203' ),
    '1' );
FILE_NAME ('959096.step',
    '2021-11-30T06:45:12',
    ( '' ),
    ( '' ),
    'SwSTEP 2.0',
    'SolidWorks 2019',
    '' );
FILE_SCHEMA (( 'CONFIG_CONTROL_DESIGN' ));
ENDSEC;

DATA;
#1 = EDGE_CURVE ( 'NONE', #240, #240, #214, .T. ) ;
#2 = AXIS2_PLACEMENT_3D ( 'NONE', #33, #78, #10 ) ;
#3 = FACE_BOUND ( 'NONE', #61, .T. ) ;
#4 = DIRECTION ( 'NONE',  ( 3.491481338843133355E-15, -1.224646799147353207E-16, 1.000000000000000000 ) ) ;
#5 = PLANE ( 'NONE',  #113 ) ;
#6 = DIRECTION ( 'NONE',  ( 3.491481338843133355E-15, -1.224646799147353207E-16, 1.000000000000000000 ) ) ;
#7 = APPROVAL_PERSON_ORGANIZATION ( #270, #203, #172 ) ;
#8 = CONICAL_SURFACE ( 'NONE', #99, 0.9349999999999984990, 0.5235987755982919323 ) ;
#9 = CARTESIAN_POINT ( 'NONE',  ( 0.0000000000000000000, 0.0000000000000000000, 0.0000000000000000000 ) ) ;
#10 = DIRECTION ( 'NONE',  ( 0.0000000000000000000, 1.000000000000000000, 0.0000000000000000000 ) ) ;
#11 = EDGE_CURVE ( 'NONE', #288, #288, #81, .T. ) ;
#12 =( NAMED_UNIT ( * ) SI_UNIT ( $, .STERADIAN. ) SOLID_ANGLE_UNIT ( ) );
#13 = DATE_AND_TIME ( #79, #26 ) ;
#14 = DIRECTION ( 'NONE',  ( -3.538686163320603070E-31, -1.000000000000000000, -9.960516054069873834E-17 ) ) ;
#15 = PERSON_AND_ORGANIZATION_ROLE ( 'creator' ) ;
#16 = EDGE_LOOP ( 'NONE', ( #299 ) ) ;
#17 = VERTEX_POINT ( 'NONE', #144 ) ;
#18 = PERSON_AND_ORGANIZATION ( #230, #164 ) ;
#19 = ORIENTED_EDGE ( 'NONE', *, *, #91, .F. ) ;
#20 = CC_DESIGN_DATE_AND_TIME_ASSIGNMENT ( #179, #40, ( #42 ) ) ;
#21 = EDGE_LOOP ( 'NONE', ( #41 ) ) ;
#22 = DIRECTION ( 'NONE',  ( 3.491481338843133355E-15, -1.224646799147353207E-16, 1.000000000000000000 ) ) ;
#23 = CARTESIAN_POINT ( 'NONE',  ( 2.886013015238226509E-14, -1.012277099146737952E-15, 8.265869798961828607 ) ) ;
#24 = AXIS2_PLACEMENT_3D ( 'NONE', #276, #184, #251 ) ;
#25 = DIRECTION ( 'NONE',  ( 0.0000000000000000000, 1.000000000000000000, 0.0000000000000000000 ) ) ;
#26 = LOCAL_TIME ( 7, 45, 12.00000000000000000, #125 ) ;
#27 = CYLINDRICAL_SURFACE ( 'NONE', #293, 1.499999999999999112 ) ;
#28 = FACE_OUTER_BOUND ( 'NONE', #207, .T. ) ;
#29 = FACE_OUTER_BOUND ( 'NONE', #226, .T. ) ;
#30 = DIRECTION ( 'NONE',  ( 0.0000000000000000000, 1.000000000000000000, 0.0000000000000000000 ) ) ;
#31 = AXIS2_PLACEMENT_3D ( 'NONE', #9, #90, #281 ) ;
#32 = ADVANCED_FACE ( 'NONE', ( #303 ), #66, .F. ) ;
#33 = CARTESIAN_POINT ( 'NONE',  ( 6.405924284287275164E-14, -2.246895775456749140E-15, 18.34729635533384595 ) ) ;
#34 = PERSON_AND_ORGANIZATION_ROLE ( 'classification_officer' ) ;
#35 = APPROVAL_DATE_TIME ( #242, #181 ) ;
#36 = CARTESIAN_POINT ( 'NONE',  ( 0.0000000000000000000, 0.9441624327025943675, 0.0000000000000000000 ) ) ;
#37 = APPLICATION_CONTEXT ( 'configuration controlled 3d designs of mechanical parts and assemblies' ) ;
#38 = APPROVAL_STATUS ( 'not_yet_approved' ) ;
#39 = CARTESIAN_POINT ( 'NONE',  ( 2.793185071074506684E-14, 1.088499999999998691, 8.000000000000000000 ) ) ;
#40 = DATE_TIME_ROLE ( 'creation_date' ) ;
#41 = ORIENTED_EDGE ( 'NONE', *, *, #11, .F. ) ;
#42 = PRODUCT_DEFINITION ( 'UNKNOWN', '', #265, #262 ) ;
#43 = CC_DESIGN_SECURITY_CLASSIFICATION ( #49, ( #265 ) ) ;
#44 = EDGE_LOOP ( 'NONE', ( #131 ) ) ;
#45 = FACE_OUTER_BOUND ( 'NONE', #105, .T. ) ;
#46 = EDGE_CURVE ( 'NONE', #166, #166, #252, .T. ) ;
#47 = CARTESIAN_POINT ( 'NONE',  ( 2.793185071074506684E-14, 8.162442617137142432E-33, 8.000000000000000000 ) ) ;
#48 = AXIS2_PLACEMENT_3D ( 'NONE', #23, #274, #155 ) ;
#49 = SECURITY_CLASSIFICATION ( '', '', #146 ) ;
#50 = DIRECTION ( 'NONE',  ( 4.275831445896958607E-31, 1.000000000000000000, 1.224646799147353207E-16 ) ) ;
#51 = CARTESIAN_POINT ( 'NONE',  ( -2.018539709892161852E-31, 7.080084224337668305E-33, -5.781327505422051645E-17 ) ) ;
#52 = FACE_OUTER_BOUND ( 'NONE', #295, .T. ) ;
#53 = DIRECTION ( 'NONE',  ( -3.491481338843133355E-15, 1.224646799147353207E-16, -1.000000000000000000 ) ) ;
#54 = EDGE_CURVE ( 'NONE', #80, #80, #234, .T. ) ;
#55 = VERTEX_POINT ( 'NONE', #36 ) ;
#56 = PERSON_AND_ORGANIZATION_ROLE ( 'design_supplier' ) ;
#57 = CALENDAR_DATE ( 2021, 30, 11 ) ;
#58 = CARTESIAN_POINT ( 'NONE',  ( 6.284666409917640040E-14, 0.9349999999999974998, 18.00000000000000000 ) ) ;
#59 = CIRCLE ( 'NONE', #159, 0.9349999999999996092 ) ;
#60 = APPROVAL_STATUS ( 'not_yet_approved' ) ;
#61 = EDGE_LOOP ( 'NONE', ( #84 ) ) ;
#62 = PRODUCT_RELATED_PRODUCT_CATEGORY ( 'detail', '', ( #300 ) ) ;
#63 = CALENDAR_DATE ( 2021, 30, 11 ) ;
#64 = ADVANCED_FACE ( 'NONE', ( #227, #45 ), #27, .T. ) ;
#65 = ORIENTED_EDGE ( 'NONE', *, *, #145, .F. ) ;
#66 = PLANE ( 'NONE',  #107 ) ;
#67 = EDGE_LOOP ( 'NONE', ( #19 ) ) ;
#68 = FACE_OUTER_BOUND ( 'NONE', #44, .T. ) ;
#69 = APPROVAL ( #38, 'UNSPECIFIED' ) ;
#70 = CARTESIAN_POINT ( 'NONE',  ( 7.464525784319021462E-14, -2.618203198516331749E-15, 21.37925155513595143 ) ) ;
#71 = LOCAL_TIME ( 7, 45, 12.00000000000000000, #272 ) ;
#72 = DIRECTION ( 'NONE',  ( -3.491481338843133355E-15, 1.224646799147353207E-16, -1.000000000000000000 ) ) ;
#73 = AXIS2_PLACEMENT_3D ( 'NONE', #110, #87, #112 ) ;
#74 = FACE_BOUND ( 'NONE', #153, .T. ) ;
#75 = DIRECTION ( 'NONE',  ( 3.491481338843133355E-15, -1.224646799147353207E-16, 1.000000000000000000 ) ) ;
#76 = COORDINATED_UNIVERSAL_TIME_OFFSET ( 1, 0, .AHEAD. ) ;
#77 = APPROVAL_STATUS ( 'not_yet_approved' ) ;
#78 = DIRECTION ( 'NONE',  ( -3.491481338843133355E-15, 1.224646799147353207E-16, -1.000000000000000000 ) ) ;
#79 = CALENDAR_DATE ( 2021, 30, 11 ) ;
#80 = VERTEX_POINT ( 'NONE', #292 ) ;
#81 = CIRCLE ( 'NONE', #24, 1.500000000000001554 ) ;
#82 = AXIS2_PLACEMENT_3D ( 'NONE', #92, #138, #189 ) ;
#83 = CC_DESIGN_PERSON_AND_ORGANIZATION_ASSIGNMENT ( #266, #15, ( #265 ) ) ;
#84 = ORIENTED_EDGE ( 'NONE', *, *, #277, .F. ) ;
#85 = APPROVAL_ROLE ( '' ) ;
#86 = EDGE_LOOP ( 'NONE', ( #65 ) ) ;
#87 = DIRECTION ( 'NONE',  ( -3.491481338843133355E-15, 1.224646799147353207E-16, -1.000000000000000000 ) ) ;
#88 = ORIENTED_EDGE ( 'NONE', *, *, #206, .T. ) ;
#89 = ADVANCED_FACE ( 'NONE', ( #28, #74 ), #8, .T. ) ;
#90 = DIRECTION ( 'NONE',  ( -3.491481338843133355E-15, 1.224646799147353207E-16, -1.000000000000000000 ) ) ;
#91 = EDGE_CURVE ( 'NONE', #171, #171, #229, .T. ) ;
#92 = CARTESIAN_POINT ( 'NONE',  ( 0.0000000000000000000, 0.0000000000000000000, 0.0000000000000000000 ) ) ;
#93 = CARTESIAN_POINT ( 'NONE',  ( 0.0000000000000000000, 0.0000000000000000000, 0.0000000000000000000 ) ) ;
#94 =( GEOMETRIC_REPRESENTATION_CONTEXT ( 3 ) GLOBAL_UNCERTAINTY_ASSIGNED_CONTEXT ( ( #167 ) ) GLOBAL_UNIT_ASSIGNED_CONTEXT ( ( #217, #149, #12 ) ) REPRESENTATION_CONTEXT ( 'NONE', 'WORKASPACE' ) );
#95 = DIRECTION ( 'NONE',  ( -3.491481338843133355E-15, 1.224646799147353207E-16, -1.000000000000000000 ) ) ;
#96 = CIRCLE ( 'NONE', #267, 1.499999999999996669 ) ;
#97 = DIRECTION ( 'NONE',  ( -3.491481338843133355E-15, 1.224646799147353207E-16, -1.000000000000000000 ) ) ;
#98 = DIRECTION ( 'NONE',  ( 4.275831445896958607E-31, 1.000000000000000000, 1.224646799147353207E-16 ) ) ;
#99 = AXIS2_PLACEMENT_3D ( 'NONE', #213, #237, #30 ) ;
#100 = DATE_TIME_ROLE ( 'classification_date' ) ;
#101 = CARTESIAN_POINT ( 'NONE',  ( 2.793185071074506684E-14, 1.088499999999998691, 8.000000000000000000 ) ) ;
#102 = PERSON_AND_ORGANIZATION_ROLE ( 'design_owner' ) ;
#103 = CARTESIAN_POINT ( 'NONE',  ( 1.735266225405037467E-13, 1.499999999999995559, 49.70000000000000284 ) ) ;
#104 = PERSON_AND_ORGANIZATION ( #230, #164 ) ;
#105 = EDGE_LOOP ( 'NONE', ( #249 ) ) ;
#106 = CARTESIAN_POINT ( 'NONE',  ( 6.284666409917640040E-14, -2.168404344971008868E-15, 18.00000000000000000 ) ) ;
#107 = AXIS2_PLACEMENT_3D ( 'NONE', #47, #22, #132 ) ;
#108 = PERSON_AND_ORGANIZATION_ROLE ( 'creator' ) ;
#109 = ORIENTED_EDGE ( 'NONE', *, *, #46, .F. ) ;
#110 = CARTESIAN_POINT ( 'NONE',  ( 2.793185071074506684E-14, -9.797174393178825657E-16, 8.000000000000000000 ) ) ;
#111 = PRODUCT_DEFINITION_SHAPE ( 'NONE', 'NONE',  #42 ) ;
#112 = DIRECTION ( 'NONE',  ( 0.0000000000000000000, 1.000000000000000000, 0.0000000000000000000 ) ) ;
#113 = AXIS2_PLACEMENT_3D ( 'NONE', #51, #6, #121 ) ;
#114 = CC_DESIGN_DATE_AND_TIME_ASSIGNMENT ( #13, #100, ( #49 ) ) ;
#115 = PLANE ( 'NONE',  #275 ) ;
#116 = ADVANCED_FACE ( 'NONE', ( #29 ), #115, .T. ) ;
#117 = FACE_OUTER_BOUND ( 'NONE', #271, .T. ) ;
#118 = CARTESIAN_POINT ( 'NONE',  ( -4.037079419784323703E-31, 1.416016844867533661E-32, -1.156265501084410329E-16 ) ) ;
#119 = CARTESIAN_POINT ( 'NONE',  ( 2.793185071074506684E-14, 8.162442617137142432E-33, 8.000000000000000000 ) ) ;
#120 = CC_DESIGN_APPROVAL ( #203, ( #265 ) ) ;
#121 = DIRECTION ( 'NONE',  ( -4.275831445896958607E-31, -1.000000000000000000, -1.224646799147353207E-16 ) ) ;
#122 = FACE_BOUND ( 'NONE', #86, .T. ) ;
#123 = VERTEX_POINT ( 'NONE', #268 ) ;
#124 = ADVANCED_FACE ( 'NONE', ( #68 ), #5, .F. ) ;
#125 = COORDINATED_UNIVERSAL_TIME_OFFSET ( 1, 0, .AHEAD. ) ;
#126 = SHAPE_DEFINITION_REPRESENTATION ( #111, #139 ) ;
#127 = VERTEX_POINT ( 'NONE', #58 ) ;
#128 = ORIENTED_EDGE ( 'NONE', *, *, #1, .F. ) ;
#129 = APPROVAL_PERSON_ORGANIZATION ( #198, #181, #170 ) ;
#130 = ORIENTED_EDGE ( 'NONE', *, *, #54, .T. ) ;
#131 = ORIENTED_EDGE ( 'NONE', *, *, #145, .T. ) ;
#132 = DIRECTION ( 'NONE',  ( -4.275831445896958607E-31, -1.000000000000000000, -1.224646799147353207E-16 ) ) ;
#133 = CC_DESIGN_APPROVAL ( #181, ( #49 ) ) ;
#134 = CLOSED_SHELL ( 'NONE', ( #124, #286, #165, #116 ) ) ;
#135 = EDGE_CURVE ( 'NONE', #17, #17, #156, .T. ) ;
#136 = DIRECTION ( 'NONE',  ( 0.0000000000000000000, 1.000000000000000000, 0.0000000000000000000 ) ) ;
#137 = CONICAL_SURFACE ( 'NONE', #302, 1.499999999999996669, 0.1745329251994262310 ) ;
#138 = DIRECTION ( 'NONE',  ( -3.491481338843133355E-15, 1.224646799147353207E-16, -1.000000000000000000 ) ) ;
#139 = ADVANCED_BREP_SHAPE_REPRESENTATION ( '959096', ( #186, #284, #259 ), #94 ) ;
#140 = DIRECTION ( 'NONE',  ( -3.491481338843133355E-15, 1.224646799147353207E-16, -1.000000000000000000 ) ) ;
#141 = DIRECTION ( 'NONE',  ( -4.275831445896958607E-31, -1.000000000000000000, -1.224646799147353207E-16 ) ) ;
#142 = CC_DESIGN_PERSON_AND_ORGANIZATION_ASSIGNMENT ( #104, #102, ( #300 ) ) ;
#143 = ORIENTED_EDGE ( 'NONE', *, *, #91, .T. ) ;
#144 = CARTESIAN_POINT ( 'NONE',  ( 8.728703347107835360E-16, 1.088499999999998691, 0.2500000000000000555 ) ) ;
#145 = EDGE_CURVE ( 'NONE', #55, #55, #282, .T. ) ;
#146 = SECURITY_CLASSIFICATION_LEVEL ( 'unclassified' ) ;
#147 = CLOSED_SHELL ( 'NONE', ( #32, #89, #233, #287, #194, #64, #245, #225 ) ) ;
#148 = DATE_AND_TIME ( #289, #71 ) ;
#149 =( NAMED_UNIT ( * ) PLANE_ANGLE_UNIT ( ) SI_UNIT ( $, .RADIAN. ) );
#150 = AXIS2_PLACEMENT_3D ( 'NONE', #235, #72, #212 ) ;
#151 = CALENDAR_DATE ( 2021, 30, 11 ) ;
#152 = EDGE_LOOP ( 'NONE', ( #247 ) ) ;
#153 = EDGE_LOOP ( 'NONE', ( #130 ) ) ;
#154 = CONICAL_SURFACE ( 'NONE', #253, 1.088499999999998691, 0.5235987755982925984 ) ;
#155 = DIRECTION ( 'NONE',  ( 0.0000000000000000000, 1.000000000000000000, 0.0000000000000000000 ) ) ;
#156 = CIRCLE ( 'NONE', #192, 1.088499999999998691 ) ;
#157 = FACE_OUTER_BOUND ( 'NONE', #296, .T. ) ;
#158 = CARTESIAN_POINT ( 'NONE',  ( 8.728703347107831416E-16, -3.061616997868382402E-17, 0.2499999999999999445 ) ) ;
#159 = AXIS2_PLACEMENT_3D ( 'NONE', #257, #95, #136 ) ;
#160 = DIRECTION ( 'NONE',  ( 3.491481338843133355E-15, -1.224646799147353207E-16, 1.000000000000000000 ) ) ;
#161 = DIRECTION ( 'NONE',  ( -3.491481338843133355E-15, 1.224646799147353207E-16, -1.000000000000000000 ) ) ;
#162 = CC_DESIGN_PERSON_AND_ORGANIZATION_ASSIGNMENT ( #261, #56, ( #265 ) ) ;
#163 = ORIENTED_EDGE ( 'NONE', *, *, #135, .F. ) ;
#164 = ORGANIZATION ( 'UNSPECIFIED', 'UNSPECIFIED', '' ) ;
#165 = ADVANCED_FACE ( 'NONE', ( #157, #52 ), #236, .T. ) ;
#166 = VERTEX_POINT ( 'NONE', #39 ) ;
#167 = UNCERTAINTY_MEASURE_WITH_UNIT (LENGTH_MEASURE( 1.000000000000000082E-05 ), #217, 'distance_accuracy_value', 'NONE');
#168 = APPROVAL_DATE_TIME ( #246, #203 ) ;
#169 = FACE_OUTER_BOUND ( 'NONE', #16, .T. ) ;
#170 = APPROVAL_ROLE ( '' ) ;
#171 = VERTEX_POINT ( 'NONE', #174 ) ;
#172 = APPROVAL_ROLE ( '' ) ;
#173 = AXIS2_PLACEMENT_3D ( 'NONE', #106, #97, #98 ) ;
#174 = CARTESIAN_POINT ( 'NONE',  ( 1.745740669421566678E-13, 1.199999999999995515, 50.00000000000000000 ) ) ;
#175 = AXIS2_PLACEMENT_3D ( 'NONE', #258, #53, #50 ) ;
#176 = EDGE_LOOP ( 'NONE', ( #298 ) ) ;
#177 = CARTESIAN_POINT ( 'NONE',  ( 0.0000000000000000000, 0.0000000000000000000, 0.0000000000000000000 ) ) ;
#178 = EDGE_LOOP ( 'NONE', ( #224 ) ) ;
#179 = DATE_AND_TIME ( #63, #283 ) ;
#180 = ORIENTED_EDGE ( 'NONE', *, *, #46, .T. ) ;
#181 = APPROVAL ( #77, 'UNSPECIFIED' ) ;
#182 = DIRECTION ( 'NONE',  ( -3.491481338843133355E-15, 1.224646799147353207E-16, -1.000000000000000000 ) ) ;
#183 = EDGE_CURVE ( 'NONE', #195, #195, #96, .T. ) ;
#184 = DIRECTION ( 'NONE',  ( -3.491481338843133355E-15, 1.224646799147353207E-16, -1.000000000000000000 ) ) ;
#185 = APPLICATION_CONTEXT ( 'configuration controlled 3d designs of mechanical parts and assemblies' ) ;
#186 = MANIFOLD_SOLID_BREP ( 'Corps-Déplacer/Copier1[1]', #147 ) ;
#187 = AXIS2_PLACEMENT_3D ( 'NONE', #290, #200, #238 ) ;
#188 = FACE_OUTER_BOUND ( 'NONE', #178, .T. ) ;
#189 = DIRECTION ( 'NONE',  ( 4.275831445896958607E-31, 1.000000000000000000, 1.224646799147353207E-16 ) ) ;
#190 = DIRECTION ( 'NONE',  ( -3.491481338843133355E-15, 1.224646799147353207E-16, -1.000000000000000000 ) ) ;
#191 = AXIS2_PLACEMENT_3D ( 'NONE', #118, #190, #210 ) ;
#192 = AXIS2_PLACEMENT_3D ( 'NONE', #158, #215, #285 ) ;
#193 = PLANE ( 'NONE',  #175 ) ;
#194 = ADVANCED_FACE ( 'NONE', ( #3, #188 ), #137, .T. ) ;
#195 = VERTEX_POINT ( 'NONE', #260 ) ;
#196 = LOCAL_TIME ( 7, 45, 12.00000000000000000, #263 ) ;
#197 = FACE_BOUND ( 'NONE', #250, .T. ) ;
#198 = PERSON_AND_ORGANIZATION ( #230, #164 ) ;
#199 = APPLICATION_PROTOCOL_DEFINITION ( 'international standard', 'config_control_design', 1994, #37 ) ;
#200 = DIRECTION ( 'NONE',  ( -3.491481338843133355E-15, 1.224646799147353207E-16, -1.000000000000000000 ) ) ;
#201 = APPROVAL_DATE_TIME ( #148, #69 ) ;
#202 = ORIENTED_EDGE ( 'NONE', *, *, #1, .T. ) ;
#203 = APPROVAL ( #60, 'UNSPECIFIED' ) ;
#204 = COORDINATED_UNIVERSAL_TIME_OFFSET ( 1, 0, .AHEAD. ) ;
#205 = ORIENTED_EDGE ( 'NONE', *, *, #277, .T. ) ;
#206 = EDGE_CURVE ( 'NONE', #127, #127, #59, .T. ) ;
#207 = EDGE_LOOP ( 'NONE', ( #128 ) ) ;
#208 = ORIENTED_EDGE ( 'NONE', *, *, #135, .T. ) ;
#209 = AXIS2_PLACEMENT_3D ( 'NONE', #228, #182, #301 ) ;
#210 = DIRECTION ( 'NONE',  ( 4.275831445896958607E-31, 1.000000000000000000, 1.224646799147352961E-16 ) ) ;
#211 = CYLINDRICAL_SURFACE ( 'NONE', #82, 0.9349999999999990541 ) ;
#212 = DIRECTION ( 'NONE',  ( 0.0000000000000000000, 1.000000000000000000, 0.0000000000000000000 ) ) ;
#213 = CARTESIAN_POINT ( 'NONE',  ( 2.886013015238226509E-14, -1.012277099146737952E-15, 8.265869798961828607 ) ) ;
#214 = CIRCLE ( 'NONE', #73, 1.088499999999999801 ) ;
#215 = DIRECTION ( 'NONE',  ( -3.491481338843133355E-15, 1.224646799147353207E-16, -1.000000000000000000 ) ) ;
#216 = FACE_OUTER_BOUND ( 'NONE', #21, .T. ) ;
#217 =( LENGTH_UNIT ( ) NAMED_UNIT ( * ) SI_UNIT ( .MILLI., .METRE. ) );
#218 = CC_DESIGN_APPROVAL ( #69, ( #42 ) ) ;
#219 = APPLICATION_PROTOCOL_DEFINITION ( 'international standard', 'config_control_design', 1994, #185 ) ;
#220 = FACE_OUTER_BOUND ( 'NONE', #269, .T. ) ;
#221 = DIRECTION ( 'NONE',  ( 1.000000000000000000, 0.0000000000000000000, 0.0000000000000000000 ) ) ;
#222 = CC_DESIGN_PERSON_AND_ORGANIZATION_ASSIGNMENT ( #297, #108, ( #42 ) ) ;
#223 = APPROVAL_PERSON_ORGANIZATION ( #18, #69, #85 ) ;
#224 = ORIENTED_EDGE ( 'NONE', *, *, #183, .T. ) ;
#225 = ADVANCED_FACE ( 'NONE', ( #256 ), #193, .F. ) ;
#226 = EDGE_LOOP ( 'NONE', ( #109 ) ) ;
#227 = FACE_OUTER_BOUND ( 'NONE', #176, .T. ) ;
#228 = CARTESIAN_POINT ( 'NONE',  ( 2.793185071074506684E-14, -9.797174393178825657E-16, 8.000000000000000000 ) ) ;
#229 = CIRCLE ( 'NONE', #150, 1.200000000000001732 ) ;
#230 = PERSON ( 'UNSPECIFIED', 'UNSPECIFIED', 'UNSPECIFIED', ('UNSPECIFIED'), ('UNSPECIFIED'), ('UNSPECIFIED') ) ;
#231 = CC_DESIGN_PERSON_AND_ORGANIZATION_ASSIGNMENT ( #239, #34, ( #49 ) ) ;
#232 = FACE_OUTER_BOUND ( 'NONE', #152, .T. ) ;
#233 = ADVANCED_FACE ( 'NONE', ( #232, #117 ), #211, .T. ) ;
#234 = CIRCLE ( 'NONE', #48, 0.9349999999999984990 ) ;
#235 = CARTESIAN_POINT ( 'NONE',  ( 1.745740669421566678E-13, -6.123233995736766085E-15, 50.00000000000000000 ) ) ;
#236 = CYLINDRICAL_SURFACE ( 'NONE', #31, 1.088499999999999135 ) ;
#237 = DIRECTION ( 'NONE',  ( -3.491481338843133355E-15, 1.224646799147353207E-16, -1.000000000000000000 ) ) ;
#238 = DIRECTION ( 'NONE',  ( 0.0000000000000000000, 1.000000000000000000, 0.0000000000000000000 ) ) ;
#239 = PERSON_AND_ORGANIZATION ( #230, #164 ) ;
#240 = VERTEX_POINT ( 'NONE', #101 ) ;
#241 = TOROIDAL_SURFACE ( 'NONE', #173, 2.934999999999999609, 2.000000000000000000 ) ;
#242 = DATE_AND_TIME ( #57, #196 ) ;
#243 = CARTESIAN_POINT ( 'NONE',  ( 8.728703347107831416E-16, -3.061616997868382402E-17, 0.2499999999999999445 ) ) ;
#244 = FACE_OUTER_BOUND ( 'NONE', #264, .T. ) ;
#245 = ADVANCED_FACE ( 'NONE', ( #216, #197 ), #278, .T. ) ;
#246 = DATE_AND_TIME ( #151, #248 ) ;
#247 = ORIENTED_EDGE ( 'NONE', *, *, #54, .F. ) ;
#248 = LOCAL_TIME ( 7, 45, 12.00000000000000000, #76 ) ;
#249 = ORIENTED_EDGE ( 'NONE', *, *, #11, .T. ) ;
#250 = EDGE_LOOP ( 'NONE', ( #143 ) ) ;
#251 = DIRECTION ( 'NONE',  ( 0.0000000000000000000, 1.000000000000000000, 0.0000000000000000000 ) ) ;
#252 = CIRCLE ( 'NONE', #209, 1.088499999999999801 ) ;
#253 = AXIS2_PLACEMENT_3D ( 'NONE', #243, #75, #14 ) ;
#254 = CIRCLE ( 'NONE', #2, 0.9653844939755811261 ) ;
#255 = CARTESIAN_POINT ( 'NONE',  ( 7.464525784319021462E-14, -2.618203198516331749E-15, 21.37925155513595143 ) ) ;
#256 = FACE_OUTER_BOUND ( 'NONE', #67, .T. ) ;
#257 = CARTESIAN_POINT ( 'NONE',  ( 6.284666409917640040E-14, -2.204364238465235428E-15, 18.00000000000000000 ) ) ;
#258 = CARTESIAN_POINT ( 'NONE',  ( 1.745740669421566678E-13, 8.998558695971067645E-33, 50.00000000000000000 ) ) ;
#259 = AXIS2_PLACEMENT_3D ( 'NONE', #177, #291, #221 ) ;
#260 = CARTESIAN_POINT ( 'NONE',  ( 7.464525784319021462E-14, 1.499999999999994005, 21.37925155513595143 ) ) ;
#261 = PERSON_AND_ORGANIZATION ( #230, #164 ) ;
#262 = DESIGN_CONTEXT ( 'detailed design', #37, 'design' ) ;
#263 = COORDINATED_UNIVERSAL_TIME_OFFSET ( 1, 0, .AHEAD. ) ;
#264 = EDGE_LOOP ( 'NONE', ( #205 ) ) ;
#265 = PRODUCT_DEFINITION_FORMATION_WITH_SPECIFIED_SOURCE ( 'ANY', '', #300, .NOT_KNOWN. ) ;
#266 = PERSON_AND_ORGANIZATION ( #230, #164 ) ;
#267 = AXIS2_PLACEMENT_3D ( 'NONE', #70, #161, #25 ) ;
#268 = CARTESIAN_POINT ( 'NONE',  ( 6.405924284287275164E-14, 0.9653844939755789056, 18.34729635533384595 ) ) ;
#269 = EDGE_LOOP ( 'NONE', ( #208 ) ) ;
#270 = PERSON_AND_ORGANIZATION ( #230, #164 ) ;
#271 = EDGE_LOOP ( 'NONE', ( #88 ) ) ;
#272 = COORDINATED_UNIVERSAL_TIME_OFFSET ( 1, 0, .AHEAD. ) ;
#273 = EDGE_LOOP ( 'NONE', ( #202 ) ) ;
#274 = DIRECTION ( 'NONE',  ( -3.491481338843133355E-15, 1.224646799147353207E-16, -1.000000000000000000 ) ) ;
#275 = AXIS2_PLACEMENT_3D ( 'NONE', #119, #4, #141 ) ;
#276 = CARTESIAN_POINT ( 'NONE',  ( 1.735266225405037467E-13, -6.086494591762345225E-15, 49.70000000000000284 ) ) ;
#277 = EDGE_CURVE ( 'NONE', #123, #123, #254, .T. ) ;
#278 = CONICAL_SURFACE ( 'NONE', #187, 1.200000000000001732, 0.7853981633974453924 ) ;
#279 = DIRECTION ( 'NONE',  ( 0.0000000000000000000, -1.000000000000000000, 0.0000000000000000000 ) ) ;
#280 = DIRECTION ( 'NONE',  ( 4.275831445896958607E-31, 1.000000000000000000, 1.224646799147353454E-16 ) ) ;
#281 = DIRECTION ( 'NONE',  ( 4.275831445896959482E-31, 1.000000000000000000, 1.224646799147353454E-16 ) ) ;
#282 = CIRCLE ( 'NONE', #191, 0.9441624327025943675 ) ;
#283 = LOCAL_TIME ( 7, 45, 12.00000000000000000, #204 ) ;
#284 = MANIFOLD_SOLID_BREP ( 'Corps-Déplacer/Copier1[2]', #134 ) ;
#285 = DIRECTION ( 'NONE',  ( 3.538686163320603070E-31, 1.000000000000000000, 9.960516054069873834E-17 ) ) ;
#286 = ADVANCED_FACE ( 'NONE', ( #122, #220 ), #154, .T. ) ;
#287 = ADVANCED_FACE ( 'NONE', ( #169, #244 ), #241, .F. ) ;
#288 = VERTEX_POINT ( 'NONE', #103 ) ;
#289 = CALENDAR_DATE ( 2021, 30, 11 ) ;
#290 = CARTESIAN_POINT ( 'NONE',  ( 1.745740669421566678E-13, -6.123233995736766085E-15, 50.00000000000000000 ) ) ;
#291 = DIRECTION ( 'NONE',  ( 0.0000000000000000000, 0.0000000000000000000, 1.000000000000000000 ) ) ;
#292 = CARTESIAN_POINT ( 'NONE',  ( 2.886013015238226509E-14, 0.9349999999999976108, 8.265869798961828607 ) ) ;
#293 = AXIS2_PLACEMENT_3D ( 'NONE', #93, #140, #280 ) ;
#294 = MECHANICAL_CONTEXT ( 'NONE', #185, 'mechanical' ) ;
#295 = EDGE_LOOP ( 'NONE', ( #180 ) ) ;
#296 = EDGE_LOOP ( 'NONE', ( #163 ) ) ;
#297 = PERSON_AND_ORGANIZATION ( #230, #164 ) ;
#298 = ORIENTED_EDGE ( 'NONE', *, *, #183, .F. ) ;
#299 = ORIENTED_EDGE ( 'NONE', *, *, #206, .F. ) ;
#300 = PRODUCT ( '959096', '959096', '', ( #294 ) ) ;
#301 = DIRECTION ( 'NONE',  ( 0.0000000000000000000, 1.000000000000000000, 0.0000000000000000000 ) ) ;
#302 = AXIS2_PLACEMENT_3D ( 'NONE', #255, #160, #279 ) ;
#303 = FACE_OUTER_BOUND ( 'NONE', #273, .T. ) ;
ENDSEC;
END-ISO-10303-21;
