ISO-10303-21;
HEADER;
FILE_DESCRIPTION (( 'STEP AP203' ),
    '1' );
FILE_NAME ('959048.step',
    '2021-11-17T08:03:36',
    ( '' ),
    ( '' ),
    'SwSTEP 2.0',
    'SolidWorks 2019',
    '' );
FILE_SCHEMA (( 'CONFIG_CONTROL_DESIGN' ));
ENDSEC;

DATA;
#1 = ORIENTED_EDGE ( 'NONE', *, *, #66, .T. ) ;
#2 = PERSON_AND_ORGANIZATION ( #165, #99 ) ;
#3 = CARTESIAN_POINT ( 'NONE',  ( 2.897929511239800811E-13, 4.124339402320093095E-32, 83.00000000000000000 ) ) ;
#4 = APPLICATION_CONTEXT ( 'configuration controlled 3d designs of mechanical parts and assemblies' ) ;
#5 = UNCERTAINTY_MEASURE_WITH_UNIT (LENGTH_MEASURE( 1.000000000000000082E-05 ), #196, 'distance_accuracy_value', 'NONE');
#6 = DIRECTION ( 'NONE',  ( 0.0000000000000000000, 1.000000000000000000, 0.0000000000000000000 ) ) ;
#7 = EDGE_CURVE ( 'NONE', #134, #134, #117, .T. ) ;
#8 = COORDINATED_UNIVERSAL_TIME_OFFSET ( 1, 0, .AHEAD. ) ;
#9 = CYLINDRICAL_SURFACE ( 'NONE', #194, 6.000000000000000000 ) ;
#10 = APPROVAL_PERSON_ORGANIZATION ( #193, #56, #78 ) ;
#11 = APPLICATION_PROTOCOL_DEFINITION ( 'international standard', 'config_control_design', 1994, #4 ) ;
#12 = APPROVAL_PERSON_ORGANIZATION ( #45, #180, #82 ) ;
#13 = DIRECTION ( 'NONE',  ( 1.000000000000000000, 0.0000000000000000000, 0.0000000000000000000 ) ) ;
#14 = CLOSED_SHELL ( 'NONE', ( #147, #162, #139, #105 ) ) ;
#15 = CLOSED_SHELL ( 'NONE', ( #85, #223, #183, #204 ) ) ;
#16 = APPROVAL_STATUS ( 'not_yet_approved' ) ;
#17 = DIRECTION ( 'NONE',  ( -4.275831445896958607E-31, -1.000000000000000000, -1.224646799147353207E-16 ) ) ;
#18 = DIRECTION ( 'NONE',  ( 3.491481338843133355E-15, -1.217917285207545432E-16, 1.000000000000000000 ) ) ;
#19 = EDGE_LOOP ( 'NONE', ( #51 ) ) ;
#20 = ORIENTED_EDGE ( 'NONE', *, *, #49, .T. ) ;
#21 = AXIS2_PLACEMENT_3D ( 'NONE', #115, #195, #191 ) ;
#22 = DIRECTION ( 'NONE',  ( 0.0000000000000000000, 1.000000000000000000, 0.0000000000000000000 ) ) ;
#23 = CC_DESIGN_PERSON_AND_ORGANIZATION_ASSIGNMENT ( #74, #148, ( #205 ) ) ;
#24 = CALENDAR_DATE ( 2021, 17, 11 ) ;
#25 = CARTESIAN_POINT ( 'NONE',  ( 0.0000000000000000000, 0.0000000000000000000, 0.0000000000000000000 ) ) ;
#26 = MANIFOLD_SOLID_BREP ( 'Corps-Déplacer/Copier1[1]', #14 ) ;
#27 = VERTEX_POINT ( 'NONE', #215 ) ;
#28 = AXIS2_PLACEMENT_3D ( 'NONE', #202, #221, #6 ) ;
#29 = SECURITY_CLASSIFICATION_LEVEL ( 'unclassified' ) ;
#30 = AXIS2_PLACEMENT_3D ( 'NONE', #37, #36, #109 ) ;
#31 = APPROVAL_STATUS ( 'not_yet_approved' ) ;
#32 = COORDINATED_UNIVERSAL_TIME_OFFSET ( 1, 0, .AHEAD. ) ;
#33 = CALENDAR_DATE ( 2021, 17, 11 ) ;
#34 = AXIS2_PLACEMENT_3D ( 'NONE', #118, #199, #47 ) ;
#35 = EDGE_LOOP ( 'NONE', ( #145 ) ) ;
#36 = DIRECTION ( 'NONE',  ( -3.491481338843133355E-15, 1.224646799147353207E-16, -1.000000000000000000 ) ) ;
#37 = CARTESIAN_POINT ( 'NONE',  ( 8.728703347107833388E-14, -3.061616997868383043E-15, 25.00000000000000000 ) ) ;
#38 = ORIENTED_EDGE ( 'NONE', *, *, #42, .T. ) ;
#39 = DIRECTION ( 'NONE',  ( -4.172848212839010723E-31, -1.000000000000000000, -1.219727444046192488E-16 ) ) ;
#40 = AXIS2_PLACEMENT_3D ( 'NONE', #25, #137, #13 ) ;
#41 = PLANE ( 'NONE',  #201 ) ;
#42 = EDGE_CURVE ( 'NONE', #102, #102, #197, .T. ) ;
#43 = CALENDAR_DATE ( 2021, 17, 11 ) ;
#44 =( GEOMETRIC_REPRESENTATION_CONTEXT ( 3 ) GLOBAL_UNCERTAINTY_ASSIGNED_CONTEXT ( ( #5 ) ) GLOBAL_UNIT_ASSIGNED_CONTEXT ( ( #196, #211, #163 ) ) REPRESENTATION_CONTEXT ( 'NONE', 'WORKASPACE' ) );
#45 = PERSON_AND_ORGANIZATION ( #165, #99 ) ;
#46 = CIRCLE ( 'NONE', #54, 6.000000000000000000 ) ;
#47 = DIRECTION ( 'NONE',  ( -4.172848212839010723E-31, -1.000000000000000000, -1.219727444046192488E-16 ) ) ;
#48 = DIRECTION ( 'NONE',  ( -3.491481338843133355E-15, 1.224646799147353207E-16, -1.000000000000000000 ) ) ;
#49 = EDGE_CURVE ( 'NONE', #198, #198, #46, .T. ) ;
#50 = CIRCLE ( 'NONE', #122, 5.799999999999998046 ) ;
#51 = ORIENTED_EDGE ( 'NONE', *, *, #7, .T. ) ;
#52 = FACE_OUTER_BOUND ( 'NONE', #106, .T. ) ;
#53 = DIRECTION ( 'NONE',  ( 0.0000000000000000000, 1.000000000000000000, 0.0000000000000000000 ) ) ;
#54 = AXIS2_PLACEMENT_3D ( 'NONE', #140, #206, #39 ) ;
#55 = DIRECTION ( 'NONE',  ( -3.491481338843133355E-15, 1.224646799147353207E-16, -1.000000000000000000 ) ) ;
#56 = APPROVAL ( #189, 'UNSPECIFIED' ) ;
#57 = EDGE_LOOP ( 'NONE', ( #127 ) ) ;
#58 = ADVANCED_BREP_SHAPE_REPRESENTATION ( '959048', ( #26, #100, #40 ), #44 ) ;
#59 = DATE_TIME_ROLE ( 'classification_date' ) ;
#60 = DIRECTION ( 'NONE',  ( -4.252335473556634068E-31, -1.000000000000000000, -1.217917285207545432E-16 ) ) ;
#61 = PERSON_AND_ORGANIZATION ( #165, #99 ) ;
#62 = CARTESIAN_POINT ( 'NONE',  ( 8.728703347107833388E-14, 5.999999999999996447, 25.00000000000000000 ) ) ;
#63 = DATE_AND_TIME ( #24, #119 ) ;
#64 = CC_DESIGN_PERSON_AND_ORGANIZATION_ASSIGNMENT ( #61, #192, ( #169 ) ) ;
#65 = CARTESIAN_POINT ( 'NONE',  ( 0.0000000000000000000, 0.0000000000000000000, 0.0000000000000000000 ) ) ;
#66 = EDGE_CURVE ( 'NONE', #150, #150, #190, .T. ) ;
#67 = PLANE ( 'NONE',  #21 ) ;
#68 = DATE_AND_TIME ( #33, #220 ) ;
#69 = AXIS2_PLACEMENT_3D ( 'NONE', #135, #96, #86 ) ;
#70 = DIRECTION ( 'NONE',  ( 3.491481338843133355E-15, -1.224646799147353207E-16, 1.000000000000000000 ) ) ;
#71 = CARTESIAN_POINT ( 'NONE',  ( 8.728703347107833388E-14, -3.061616997868383043E-15, 25.00000000000000000 ) ) ;
#72 = EDGE_LOOP ( 'NONE', ( #186 ) ) ;
#73 = LOCAL_TIME ( 9, 3, 36.00000000000000000, #170 ) ;
#74 = PERSON_AND_ORGANIZATION ( #165, #99 ) ;
#75 = DIRECTION ( 'NONE',  ( -3.491481338843133355E-15, 1.224646799147353207E-16, -1.000000000000000000 ) ) ;
#76 = SHAPE_DEFINITION_REPRESENTATION ( #208, #58 ) ;
#77 = ORIENTED_EDGE ( 'NONE', *, *, #42, .F. ) ;
#78 = APPROVAL_ROLE ( '' ) ;
#79 = FACE_OUTER_BOUND ( 'NONE', #35, .T. ) ;
#80 = PRODUCT ( '959048', '959048', '', ( #84 ) ) ;
#81 = PRODUCT_DEFINITION ( 'UNKNOWN', '', #169, #212 ) ;
#82 = APPROVAL_ROLE ( '' ) ;
#83 = AXIS2_PLACEMENT_3D ( 'NONE', #174, #141, #22 ) ;
#84 = MECHANICAL_CONTEXT ( 'NONE', #214, 'mechanical' ) ;
#85 = ADVANCED_FACE ( 'NONE', ( #89, #52 ), #112, .T. ) ;
#86 = DIRECTION ( 'NONE',  ( -4.275831445896958607E-31, -1.000000000000000000, -1.224646799147353207E-16 ) ) ;
#87 = DATE_AND_TIME ( #167, #97 ) ;
#88 = EDGE_CURVE ( 'NONE', #101, #101, #50, .T. ) ;
#89 = FACE_OUTER_BOUND ( 'NONE', #19, .T. ) ;
#90 = AXIS2_PLACEMENT_3D ( 'NONE', #71, #75, #53 ) ;
#91 = DIRECTION ( 'NONE',  ( -3.491481338843133355E-15, 1.224646799147353207E-16, -1.000000000000000000 ) ) ;
#92 = EDGE_LOOP ( 'NONE', ( #129 ) ) ;
#93 = PRODUCT_RELATED_PRODUCT_CATEGORY ( 'detail', '', ( #80 ) ) ;
#94 = CARTESIAN_POINT ( 'NONE',  ( 0.0000000000000000000, 0.0000000000000000000, 0.0000000000000000000 ) ) ;
#95 = EDGE_LOOP ( 'NONE', ( #172 ) ) ;
#96 = DIRECTION ( 'NONE',  ( 3.491481338843133355E-15, -1.224646799147353207E-16, 1.000000000000000000 ) ) ;
#97 = LOCAL_TIME ( 9, 3, 36.00000000000000000, #32 ) ;
#98 = CC_DESIGN_PERSON_AND_ORGANIZATION_ASSIGNMENT ( #176, #136, ( #80 ) ) ;
#99 = ORGANIZATION ( 'UNSPECIFIED', 'UNSPECIFIED', '' ) ;
#100 = MANIFOLD_SOLID_BREP ( 'Corps-Déplacer/Copier1[2]', #15 ) ;
#101 = VERTEX_POINT ( 'NONE', #146 ) ;
#102 = VERTEX_POINT ( 'NONE', #131 ) ;
#103 = PERSON_AND_ORGANIZATION ( #165, #99 ) ;
#104 = AXIS2_PLACEMENT_3D ( 'NONE', #94, #55, #203 ) ;
#105 = ADVANCED_FACE ( 'NONE', ( #173 ), #160, .F. ) ;
#106 = EDGE_LOOP ( 'NONE', ( #20 ) ) ;
#107 = CC_DESIGN_APPROVAL ( #180, ( #81 ) ) ;
#108 = CC_DESIGN_PERSON_AND_ORGANIZATION_ASSIGNMENT ( #103, #218, ( #81 ) ) ;
#109 = DIRECTION ( 'NONE',  ( 0.0000000000000000000, 1.000000000000000000, 0.0000000000000000000 ) ) ;
#110 = CALENDAR_DATE ( 2021, 17, 11 ) ;
#111 = EDGE_LOOP ( 'NONE', ( #77 ) ) ;
#112 = CYLINDRICAL_SURFACE ( 'NONE', #104, 6.000000000000000000 ) ;
#113 = CARTESIAN_POINT ( 'NONE',  ( 8.728703347107833388E-14, 4.499279347985567350E-32, 25.00000000000000000 ) ) ;
#114 = PERSON_AND_ORGANIZATION_ROLE ( 'design_supplier' ) ;
#115 = CARTESIAN_POINT ( 'NONE',  ( -1.282749433769087757E-30, 4.499279347985572824E-32, -3.673940397442059868E-16 ) ) ;
#116 = DATE_AND_TIME ( #43, #164 ) ;
#117 = CIRCLE ( 'NONE', #30, 6.000000000000000000 ) ;
#118 = CARTESIAN_POINT ( 'NONE',  ( 6.982962677686262766E-16, -2.435834570415089386E-17, 0.1999999999999998723 ) ) ;
#119 = LOCAL_TIME ( 9, 3, 36.00000000000000000, #128 ) ;
#120 = CARTESIAN_POINT ( 'NONE',  ( 6.982962677686238114E-16, -6.000000000000000000, 0.1999999999999991507 ) ) ;
#121 = APPROVAL_ROLE ( '' ) ;
#122 = AXIS2_PLACEMENT_3D ( 'NONE', #184, #18, #60 ) ;
#123 = CC_DESIGN_DATE_AND_TIME_ASSIGNMENT ( #68, #200, ( #81 ) ) ;
#124 = ORIENTED_EDGE ( 'NONE', *, *, #88, .F. ) ;
#125 = EDGE_CURVE ( 'NONE', #27, #27, #213, .T. ) ;
#126 = FACE_OUTER_BOUND ( 'NONE', #222, .T. ) ;
#127 = ORIENTED_EDGE ( 'NONE', *, *, #125, .F. ) ;
#128 = COORDINATED_UNIVERSAL_TIME_OFFSET ( 1, 0, .AHEAD. ) ;
#129 = ORIENTED_EDGE ( 'NONE', *, *, #88, .T. ) ;
#130 = CC_DESIGN_APPROVAL ( #56, ( #205 ) ) ;
#131 = CARTESIAN_POINT ( 'NONE',  ( 2.897929511239800811E-13, 5.499999999999989342, 83.00000000000000000 ) ) ;
#132 = DATE_AND_TIME ( #110, #73 ) ;
#133 = CC_DESIGN_DATE_AND_TIME_ASSIGNMENT ( #116, #59, ( #205 ) ) ;
#134 = VERTEX_POINT ( 'NONE', #62 ) ;
#135 = CARTESIAN_POINT ( 'NONE',  ( 8.728703347107833388E-14, 4.499279347985567350E-32, 25.00000000000000000 ) ) ;
#136 = PERSON_AND_ORGANIZATION_ROLE ( 'design_owner' ) ;
#137 = DIRECTION ( 'NONE',  ( 0.0000000000000000000, 0.0000000000000000000, 1.000000000000000000 ) ) ;
#138 = COORDINATED_UNIVERSAL_TIME_OFFSET ( 1, 0, .AHEAD. ) ;
#139 = ADVANCED_FACE ( 'NONE', ( #144, #207 ), #178, .T. ) ;
#140 = CARTESIAN_POINT ( 'NONE',  ( 6.982962677686262766E-16, -2.435834570415089386E-17, 0.1999999999999998723 ) ) ;
#141 = DIRECTION ( 'NONE',  ( -3.491481338843133355E-15, 1.224646799147353207E-16, -1.000000000000000000 ) ) ;
#142 = AXIS2_PLACEMENT_3D ( 'NONE', #171, #143, #188 ) ;
#143 = DIRECTION ( 'NONE',  ( -3.491481338843133355E-15, 1.224646799147353207E-16, -1.000000000000000000 ) ) ;
#144 = FACE_BOUND ( 'NONE', #156, .T. ) ;
#145 = ORIENTED_EDGE ( 'NONE', *, *, #49, .F. ) ;
#146 = CARTESIAN_POINT ( 'NONE',  ( -4.932709149325694783E-30, -5.799999999999998046, -1.412784050840752287E-15 ) ) ;
#147 = ADVANCED_FACE ( 'NONE', ( #209 ), #41, .F. ) ;
#148 = PERSON_AND_ORGANIZATION_ROLE ( 'classification_officer' ) ;
#149 = PLANE ( 'NONE',  #69 ) ;
#150 = VERTEX_POINT ( 'NONE', #217 ) ;
#151 = FACE_OUTER_BOUND ( 'NONE', #57, .T. ) ;
#152 = AXIS2_PLACEMENT_3D ( 'NONE', #3, #91, #157 ) ;
#153 = DIRECTION ( 'NONE',  ( 4.275831445896959482E-31, 1.000000000000000000, 1.224646799147353207E-16 ) ) ;
#154 = APPROVAL_DATE_TIME ( #87, #180 ) ;
#155 = APPROVAL_PERSON_ORGANIZATION ( #181, #219, #121 ) ;
#156 = EDGE_LOOP ( 'NONE', ( #38 ) ) ;
#157 = DIRECTION ( 'NONE',  ( 4.275831445896958607E-31, 1.000000000000000000, 1.224646799147353207E-16 ) ) ;
#158 = ORIENTED_EDGE ( 'NONE', *, *, #7, .F. ) ;
#159 = CC_DESIGN_SECURITY_CLASSIFICATION ( #205, ( #169 ) ) ;
#160 = PLANE ( 'NONE',  #152 ) ;
#161 = EDGE_LOOP ( 'NONE', ( #124 ) ) ;
#162 = ADVANCED_FACE ( 'NONE', ( #126, #151 ), #9, .T. ) ;
#163 =( NAMED_UNIT ( * ) SI_UNIT ( $, .STERADIAN. ) SOLID_ANGLE_UNIT ( ) );
#164 = LOCAL_TIME ( 9, 3, 36.00000000000000000, #8 ) ;
#165 = PERSON ( 'UNSPECIFIED', 'UNSPECIFIED', 'UNSPECIFIED', ('UNSPECIFIED'), ('UNSPECIFIED'), ('UNSPECIFIED') ) ;
#166 = FACE_OUTER_BOUND ( 'NONE', #161, .T. ) ;
#167 = CALENDAR_DATE ( 2021, 17, 11 ) ;
#168 = CC_DESIGN_PERSON_AND_ORGANIZATION_ASSIGNMENT ( #2, #114, ( #169 ) ) ;
#169 = PRODUCT_DEFINITION_FORMATION_WITH_SPECIFIED_SOURCE ( 'ANY', '', #80, .NOT_KNOWN. ) ;
#170 = COORDINATED_UNIVERSAL_TIME_OFFSET ( 1, 0, .AHEAD. ) ;
#171 = CARTESIAN_POINT ( 'NONE',  ( 2.897929511239800811E-13, -1.016456843292303150E-14, 83.00000000000000000 ) ) ;
#172 = ORIENTED_EDGE ( 'NONE', *, *, #125, .T. ) ;
#173 = FACE_OUTER_BOUND ( 'NONE', #111, .T. ) ;
#174 = CARTESIAN_POINT ( 'NONE',  ( 2.880472104545584703E-13, -1.010333609296566392E-14, 82.50000000000000000 ) ) ;
#175 = APPROVAL_DATE_TIME ( #63, #56 ) ;
#176 = PERSON_AND_ORGANIZATION ( #165, #99 ) ;
#177 = APPLICATION_PROTOCOL_DEFINITION ( 'international standard', 'config_control_design', 1994, #214 ) ;
#178 = CONICAL_SURFACE ( 'NONE', #83, 6.000000000000000000, 0.7853981633974482790 ) ;
#179 = FACE_BOUND ( 'NONE', #92, .T. ) ;
#180 = APPROVAL ( #31, 'UNSPECIFIED' ) ;
#181 = PERSON_AND_ORGANIZATION ( #165, #99 ) ;
#182 = CONICAL_SURFACE ( 'NONE', #34, 6.000000000000000000, 0.7853981633974524978 ) ;
#183 = ADVANCED_FACE ( 'NONE', ( #179, #79 ), #182, .T. ) ;
#184 = CARTESIAN_POINT ( 'NONE',  ( -2.466354574662847742E-30, 8.603270578922438976E-32, -7.063920254203761437E-16 ) ) ;
#185 = EDGE_LOOP ( 'NONE', ( #158 ) ) ;
#186 = ORIENTED_EDGE ( 'NONE', *, *, #66, .F. ) ;
#187 = APPROVAL_DATE_TIME ( #132, #219 ) ;
#188 = DIRECTION ( 'NONE',  ( 0.0000000000000000000, 1.000000000000000000, 0.0000000000000000000 ) ) ;
#189 = APPROVAL_STATUS ( 'not_yet_approved' ) ;
#190 = CIRCLE ( 'NONE', #28, 6.000000000000000000 ) ;
#191 = DIRECTION ( 'NONE',  ( 4.275831445896958607E-31, 1.000000000000000000, 1.224646799147353207E-16 ) ) ;
#192 = PERSON_AND_ORGANIZATION_ROLE ( 'creator' ) ;
#193 = PERSON_AND_ORGANIZATION ( #165, #99 ) ;
#194 = AXIS2_PLACEMENT_3D ( 'NONE', #65, #48, #153 ) ;
#195 = DIRECTION ( 'NONE',  ( -3.491481338843133355E-15, 1.224646799147353207E-16, -1.000000000000000000 ) ) ;
#196 =( LENGTH_UNIT ( ) NAMED_UNIT ( * ) SI_UNIT ( .MILLI., .METRE. ) );
#197 = CIRCLE ( 'NONE', #142, 5.500000000000000000 ) ;
#198 = VERTEX_POINT ( 'NONE', #120 ) ;
#199 = DIRECTION ( 'NONE',  ( 3.491481338843133355E-15, -1.217917285207545432E-16, 1.000000000000000000 ) ) ;
#200 = DATE_TIME_ROLE ( 'creation_date' ) ;
#201 = AXIS2_PLACEMENT_3D ( 'NONE', #113, #70, #17 ) ;
#202 = CARTESIAN_POINT ( 'NONE',  ( 2.880472104545584703E-13, -1.010333609296566392E-14, 82.50000000000000000 ) ) ;
#203 = DIRECTION ( 'NONE',  ( 4.275831445896959482E-31, 1.000000000000000000, 1.224646799147353207E-16 ) ) ;
#204 = ADVANCED_FACE ( 'NONE', ( #166 ), #67, .T. ) ;
#205 = SECURITY_CLASSIFICATION ( '', '', #29 ) ;
#206 = DIRECTION ( 'NONE',  ( 3.491481338843133355E-15, -1.217917285207545432E-16, 1.000000000000000000 ) ) ;
#207 = FACE_OUTER_BOUND ( 'NONE', #72, .T. ) ;
#208 = PRODUCT_DEFINITION_SHAPE ( 'NONE', 'NONE',  #81 ) ;
#209 = FACE_OUTER_BOUND ( 'NONE', #95, .T. ) ;
#210 = CC_DESIGN_APPROVAL ( #219, ( #169 ) ) ;
#211 =( NAMED_UNIT ( * ) PLANE_ANGLE_UNIT ( ) SI_UNIT ( $, .RADIAN. ) );
#212 = DESIGN_CONTEXT ( 'detailed design', #4, 'design' ) ;
#213 = CIRCLE ( 'NONE', #90, 6.000000000000000000 ) ;
#214 = APPLICATION_CONTEXT ( 'configuration controlled 3d designs of mechanical parts and assemblies' ) ;
#215 = CARTESIAN_POINT ( 'NONE',  ( 8.728703347107833388E-14, 5.999999999999996447, 25.00000000000000000 ) ) ;
#216 = FACE_OUTER_BOUND ( 'NONE', #185, .T. ) ;
#217 = CARTESIAN_POINT ( 'NONE',  ( 2.880472104545584703E-13, 5.999999999999989342, 82.50000000000000000 ) ) ;
#218 = PERSON_AND_ORGANIZATION_ROLE ( 'creator' ) ;
#219 = APPROVAL ( #16, 'UNSPECIFIED' ) ;
#220 = LOCAL_TIME ( 9, 3, 36.00000000000000000, #138 ) ;
#221 = DIRECTION ( 'NONE',  ( -3.491481338843133355E-15, 1.224646799147353207E-16, -1.000000000000000000 ) ) ;
#222 = EDGE_LOOP ( 'NONE', ( #1 ) ) ;
#223 = ADVANCED_FACE ( 'NONE', ( #216 ), #149, .T. ) ;
ENDSEC;
END-ISO-10303-21;
