ISO-10303-21;
HEADER;
FILE_DESCRIPTION (( 'STEP AP203' ),
    '1' );
FILE_NAME ('959038.step',
    '2021-11-10T12:11:22',
    ( '' ),
    ( '' ),
    'SwSTEP 2.0',
    'SolidWorks 2019',
    '' );
FILE_SCHEMA (( 'CONFIG_CONTROL_DESIGN' ));
ENDSEC;

DATA;
#1 = PERSON_AND_ORGANIZATION ( #173, #58 ) ;
#2 = DIRECTION ( 'NONE',  ( 3.851859888774471706E-31, 1.000000000000000000, 1.084202172485504434E-16 ) ) ;
#3 = EDGE_LOOP ( 'NONE', ( #200 ) ) ;
#4 = ORIENTED_EDGE ( 'NONE', *, *, #240, .F. ) ;
#5 = FACE_OUTER_BOUND ( 'NONE', #218, .T. ) ;
#6 = EDGE_CURVE ( 'NONE', #184, #184, #206, .T. ) ;
#7 = DIRECTION ( 'NONE',  ( -3.491481338843133355E-15, 1.224646799147353207E-16, -1.000000000000000000 ) ) ;
#8 = AXIS2_PLACEMENT_3D ( 'NONE', #133, #149, #231 ) ;
#9 = CARTESIAN_POINT ( 'NONE',  ( 1.492608272355439415E-13, 1.249999999999996447, 42.74999999999999289 ) ) ;
#10 = CARTESIAN_POINT ( 'NONE',  ( 4.589320932767365101E-14, -1.250000000000001332, 13.14433756729740921 ) ) ;
#11 = VERTEX_POINT ( 'NONE', #85 ) ;
#12 = CARTESIAN_POINT ( 'NONE',  ( 0.0000000000000000000, 0.0000000000000000000, 0.0000000000000000000 ) ) ;
#13 = MANIFOLD_SOLID_BREP ( 'Corps-Déplacer/Copier1[1]', #234 ) ;
#14 = SHAPE_DEFINITION_REPRESENTATION ( #228, #45 ) ;
#15 = APPROVAL_PERSON_ORGANIZATION ( #123, #194, #190 ) ;
#16 = CALENDAR_DATE ( 2021, 10, 11 ) ;
#17 = ADVANCED_FACE ( 'NONE', ( #112, #19 ), #183, .T. ) ;
#18 = APPROVAL_STATUS ( 'not_yet_approved' ) ;
#19 = FACE_OUTER_BOUND ( 'NONE', #64, .T. ) ;
#20 = COORDINATED_UNIVERSAL_TIME_OFFSET ( 1, 0, .AHEAD. ) ;
#21 = CARTESIAN_POINT ( 'NONE',  ( 1.492608272355439415E-13, -5.235365066354933894E-15, 42.74999999999999289 ) ) ;
#22 = CIRCLE ( 'NONE', #51, 1.000000000000000000 ) ;
#23 = PLANE ( 'NONE',  #132 ) ;
#24 = CARTESIAN_POINT ( 'NONE',  ( 1.501336975702547217E-13, 0.9999999999999963363, 43.00000000000000000 ) ) ;
#25 = PRODUCT ( '959038', '959038', '', ( #212 ) ) ;
#26 = CARTESIAN_POINT ( 'NONE',  ( 4.589320932767365101E-14, -1.639276420820381952E-15, 13.14433756729740921 ) ) ;
#27 = LOCAL_TIME ( 13, 11, 22.00000000000000000, #75 ) ;
#28 = PLANE ( 'NONE',  #196 ) ;
#29 = EDGE_CURVE ( 'NONE', #80, #80, #22, .T. ) ;
#30 = FACE_OUTER_BOUND ( 'NONE', #3, .T. ) ;
#31 = DIRECTION ( 'NONE',  ( 1.000000000000000000, 0.0000000000000000000, 0.0000000000000000000 ) ) ;
#32 = AXIS2_PLACEMENT_3D ( 'NONE', #70, #41, #205 ) ;
#33 = APPROVAL ( #37, 'UNSPECIFIED' ) ;
#34 =( NAMED_UNIT ( * ) PLANE_ANGLE_UNIT ( ) SI_UNIT ( $, .RADIAN. ) );
#35 = AXIS2_PLACEMENT_3D ( 'NONE', #170, #135, #65 ) ;
#36 = ADVANCED_FACE ( 'NONE', ( #78 ), #241, .T. ) ;
#37 = APPROVAL_STATUS ( 'not_yet_approved' ) ;
#38 = DIRECTION ( 'NONE',  ( -3.491481338843133355E-15, 1.224646799147353207E-16, -1.000000000000000000 ) ) ;
#39 = FACE_BOUND ( 'NONE', #197, .T. ) ;
#40 = EDGE_LOOP ( 'NONE', ( #204 ) ) ;
#41 = DIRECTION ( 'NONE',  ( -3.491481338843133355E-15, 1.224646799147353207E-16, -1.000000000000000000 ) ) ;
#42 = DIRECTION ( 'NONE',  ( 3.491481338843133355E-15, -1.224646799147353207E-16, 1.000000000000000000 ) ) ;
#43 = PLANE ( 'NONE',  #32 ) ;
#44 = ORIENTED_EDGE ( 'NONE', *, *, #77, .T. ) ;
#45 = ADVANCED_BREP_SHAPE_REPRESENTATION ( '959038', ( #13, #88, #120 ), #211 ) ;
#46 = ADVANCED_FACE ( 'NONE', ( #219, #146 ), #90, .T. ) ;
#47 = CALENDAR_DATE ( 2021, 10, 11 ) ;
#48 = AXIS2_PLACEMENT_3D ( 'NONE', #167, #225, #101 ) ;
#49 = APPLICATION_PROTOCOL_DEFINITION ( 'international standard', 'config_control_design', 1994, #105 ) ;
#50 = DATE_AND_TIME ( #213, #27 ) ;
#51 = AXIS2_PLACEMENT_3D ( 'NONE', #193, #38, #2 ) ;
#52 = LOCAL_TIME ( 13, 11, 22.00000000000000000, #209 ) ;
#53 = PERSON_AND_ORGANIZATION_ROLE ( 'creator' ) ;
#54 = PERSON_AND_ORGANIZATION ( #173, #58 ) ;
#55 = EDGE_LOOP ( 'NONE', ( #44 ) ) ;
#56 = DIRECTION ( 'NONE',  ( 0.0000000000000000000, 0.0000000000000000000, 1.000000000000000000 ) ) ;
#57 = DIRECTION ( 'NONE',  ( -3.491481338843133355E-15, 1.224646799147353207E-16, -1.000000000000000000 ) ) ;
#58 = ORGANIZATION ( 'UNSPECIFIED', 'UNSPECIFIED', '' ) ;
#59 = EDGE_LOOP ( 'NONE', ( #223 ) ) ;
#60 = DESIGN_CONTEXT ( 'detailed design', #105, 'design' ) ;
#61 = EDGE_LOOP ( 'NONE', ( #179 ) ) ;
#62 = DIRECTION ( 'NONE',  ( 4.275831445896957731E-31, 1.000000000000000000, 1.224646799147353207E-16 ) ) ;
#63 = LOCAL_TIME ( 13, 11, 22.00000000000000000, #107 ) ;
#64 = EDGE_LOOP ( 'NONE', ( #168 ) ) ;
#65 = DIRECTION ( 'NONE',  ( 0.0000000000000000000, -1.000000000000000000, 0.0000000000000000000 ) ) ;
#66 = ORIENTED_EDGE ( 'NONE', *, *, #77, .F. ) ;
#67 = DIRECTION ( 'NONE',  ( 0.0000000000000000000, -1.000000000000000000, 0.0000000000000000000 ) ) ;
#68 = CARTESIAN_POINT ( 'NONE',  ( 4.391358375696922564E-14, 0.9999999999999983347, 12.57735026918962262 ) ) ;
#69 = CIRCLE ( 'NONE', #8, 0.9999999999999997780 ) ;
#70 = CARTESIAN_POINT ( 'NONE',  ( 1.501336975702547217E-13, 7.498798913309222353E-33, 43.00000000000000000 ) ) ;
#71 = AXIS2_PLACEMENT_3D ( 'NONE', #26, #150, #202 ) ;
#72 = CC_DESIGN_PERSON_AND_ORGANIZATION_ASSIGNMENT ( #154, #171, ( #118 ) ) ;
#73 = DATE_AND_TIME ( #175, #63 ) ;
#74 = APPLICATION_CONTEXT ( 'configuration controlled 3d designs of mechanical parts and assemblies' ) ;
#75 = COORDINATED_UNIVERSAL_TIME_OFFSET ( 1, 0, .AHEAD. ) ;
#76 = APPROVAL_PERSON_ORGANIZATION ( #143, #189, #153 ) ;
#77 = EDGE_CURVE ( 'NONE', #83, #83, #103, .T. ) ;
#78 = FACE_OUTER_BOUND ( 'NONE', #61, .T. ) ;
#79 = EDGE_CURVE ( 'NONE', #11, #11, #181, .T. ) ;
#80 = VERTEX_POINT ( 'NONE', #201 ) ;
#81 = DIRECTION ( 'NONE',  ( -4.275831445896958607E-31, -1.000000000000000000, -1.224646799147353207E-16 ) ) ;
#82 = CIRCLE ( 'NONE', #71, 1.249999999999999556 ) ;
#83 = VERTEX_POINT ( 'NONE', #24 ) ;
#84 = VERTEX_POINT ( 'NONE', #68 ) ;
#85 = CARTESIAN_POINT ( 'NONE',  ( 4.478645409167999951E-14, -1.066987298107779925, 12.82735026918961907 ) ) ;
#86 = CONICAL_SURFACE ( 'NONE', #214, 1.349999999999999867, 0.5235987755982922653 ) ;
#87 = DATE_AND_TIME ( #102, #243 ) ;
#88 = MANIFOLD_SOLID_BREP ( 'Corps-Déplacer/Copier1[2]', #156 ) ;
#89 =( LENGTH_UNIT ( ) NAMED_UNIT ( * ) SI_UNIT ( .MILLI., .METRE. ) );
#90 = CONICAL_SURFACE ( 'NONE', #174, 1.000000000000001554, 0.7853981633974479459 ) ;
#91 = APPROVAL_PERSON_ORGANIZATION ( #216, #33, #108 ) ;
#92 = CARTESIAN_POINT ( 'NONE',  ( 3.491481338843133254E-12, -1.224646799147353249E-13, 1000.000000000000000 ) ) ;
#93 = PERSON_AND_ORGANIZATION ( #173, #58 ) ;
#94 = ORIENTED_EDGE ( 'NONE', *, *, #240, .T. ) ;
#95 = ORIENTED_EDGE ( 'NONE', *, *, #6, .F. ) ;
#96 = DIRECTION ( 'NONE',  ( 4.275831445896959482E-31, 1.000000000000000000, 1.224646799147353207E-16 ) ) ;
#97 = FACE_OUTER_BOUND ( 'NONE', #227, .T. ) ;
#98 = DIRECTION ( 'NONE',  ( 3.491481338843133355E-15, -1.247135059052984700E-16, 1.000000000000000000 ) ) ;
#99 = CIRCLE ( 'NONE', #48, 0.9999999999999997780 ) ;
#100 = VERTEX_POINT ( 'NONE', #169 ) ;
#101 = DIRECTION ( 'NONE',  ( 0.0000000000000000000, 1.000000000000000000, 0.0000000000000000000 ) ) ;
#102 = CALENDAR_DATE ( 2021, 10, 11 ) ;
#103 = CIRCLE ( 'NONE', #136, 1.000000000000001554 ) ;
#104 = APPLICATION_PROTOCOL_DEFINITION ( 'international standard', 'config_control_design', 1994, #74 ) ;
#105 = APPLICATION_CONTEXT ( 'configuration controlled 3d designs of mechanical parts and assemblies' ) ;
#106 = APPROVAL_DATE_TIME ( #239, #189 ) ;
#107 = COORDINATED_UNIVERSAL_TIME_OFFSET ( 1, 0, .AHEAD. ) ;
#108 = APPROVAL_ROLE ( '' ) ;
#109 = AXIS2_PLACEMENT_3D ( 'NONE', #92, #157, #145 ) ;
#110 = CC_DESIGN_APPROVAL ( #33, ( #182 ) ) ;
#111 = ORIENTED_EDGE ( 'NONE', *, *, #79, .F. ) ;
#112 = FACE_OUTER_BOUND ( 'NONE', #160, .T. ) ;
#113 = CARTESIAN_POINT ( 'NONE',  ( 4.391358375696922564E-14, 7.498798913309264775E-33, 12.57735026918962262 ) ) ;
#114 = EDGE_CURVE ( 'NONE', #100, #100, #69, .T. ) ;
#115 = DIRECTION ( 'NONE',  ( 0.0000000000000000000, 1.000000000000000000, 0.0000000000000000000 ) ) ;
#116 = CARTESIAN_POINT ( 'NONE',  ( 1.501336975702547217E-13, -5.265981236333618470E-15, 43.00000000000000000 ) ) ;
#117 = FACE_OUTER_BOUND ( 'NONE', #59, .T. ) ;
#118 = PRODUCT_DEFINITION ( 'UNKNOWN', '', #182, #60 ) ;
#119 = CYLINDRICAL_SURFACE ( 'NONE', #166, 1.249999999999999556 ) ;
#120 = AXIS2_PLACEMENT_3D ( 'NONE', #12, #56, #31 ) ;
#121 = APPROVAL_DATE_TIME ( #232, #194 ) ;
#122 = ADVANCED_FACE ( 'NONE', ( #165 ), #43, .F. ) ;
#123 = PERSON_AND_ORGANIZATION ( #173, #58 ) ;
#124 = TOROIDAL_SURFACE ( 'NONE', #210, 1.499999999999999778, 0.5000000000000000000 ) ;
#125 = APPROVAL_DATE_TIME ( #87, #33 ) ;
#126 = CC_DESIGN_DATE_AND_TIME_ASSIGNMENT ( #50, #195, ( #118 ) ) ;
#127 = PERSON_AND_ORGANIZATION_ROLE ( 'design_supplier' ) ;
#128 = ORIENTED_EDGE ( 'NONE', *, *, #114, .T. ) ;
#129 = PERSON_AND_ORGANIZATION_ROLE ( 'design_owner' ) ;
#130 = ORIENTED_EDGE ( 'NONE', *, *, #79, .T. ) ;
#131 = DIRECTION ( 'NONE',  ( 0.0000000000000000000, 1.000000000000000000, 0.0000000000000000000 ) ) ;
#132 = AXIS2_PLACEMENT_3D ( 'NONE', #229, #42, #134 ) ;
#133 = CARTESIAN_POINT ( 'NONE',  ( 4.391358375696922564E-14, -1.540281174891817232E-15, 12.57735026918962262 ) ) ;
#134 = DIRECTION ( 'NONE',  ( -4.275831445896958607E-31, -1.000000000000000000, -1.224646799147353207E-16 ) ) ;
#135 = DIRECTION ( 'NONE',  ( 3.491481338843133355E-15, -1.247135059052984700E-16, 1.000000000000000000 ) ) ;
#136 = AXIS2_PLACEMENT_3D ( 'NONE', #116, #187, #115 ) ;
#137 = DIRECTION ( 'NONE',  ( -3.491481338843133355E-15, 1.224646799147353207E-16, -1.000000000000000000 ) ) ;
#138 = FACE_OUTER_BOUND ( 'NONE', #163, .T. ) ;
#139 = AXIS2_PLACEMENT_3D ( 'NONE', #242, #159, #144 ) ;
#140 = LOCAL_TIME ( 13, 11, 22.00000000000000000, #188 ) ;
#141 = DATE_TIME_ROLE ( 'classification_date' ) ;
#142 = ADVANCED_FACE ( 'NONE', ( #236 ), #23, .F. ) ;
#143 = PERSON_AND_ORGANIZATION ( #173, #58 ) ;
#144 = DIRECTION ( 'NONE',  ( 4.275831445896958607E-31, 1.000000000000000000, 1.224646799147353207E-16 ) ) ;
#145 = DIRECTION ( 'NONE',  ( -4.554490559825206315E-31, -1.000000000000000000, -1.281975124255702555E-16 ) ) ;
#146 = FACE_BOUND ( 'NONE', #55, .T. ) ;
#147 = EDGE_LOOP ( 'NONE', ( #128 ) ) ;
#148 = FACE_OUTER_BOUND ( 'NONE', #40, .T. ) ;
#149 = DIRECTION ( 'NONE',  ( -3.491481338843133355E-15, 1.224646799147353207E-16, -1.000000000000000000 ) ) ;
#150 = DIRECTION ( 'NONE',  ( -3.491481338843133355E-15, 1.247135059052984700E-16, -1.000000000000000000 ) ) ;
#151 = CC_DESIGN_APPROVAL ( #194, ( #215 ) ) ;
#152 = EDGE_CURVE ( 'NONE', #233, #233, #82, .T. ) ;
#153 = APPROVAL_ROLE ( '' ) ;
#154 = PERSON_AND_ORGANIZATION ( #173, #58 ) ;
#155 = ORIENTED_EDGE ( 'NONE', *, *, #152, .F. ) ;
#156 = CLOSED_SHELL ( 'NONE', ( #36, #17, #235 ) ) ;
#157 = DIRECTION ( 'NONE',  ( 3.491481338843133355E-15, -1.224646799147353207E-16, 1.000000000000000000 ) ) ;
#158 = PERSON_AND_ORGANIZATION ( #173, #58 ) ;
#159 = DIRECTION ( 'NONE',  ( -3.491481338843133355E-15, 1.224646799147353207E-16, -1.000000000000000000 ) ) ;
#160 = EDGE_LOOP ( 'NONE', ( #94 ) ) ;
#161 = DIRECTION ( 'NONE',  ( 0.0000000000000000000, 1.000000000000000000, 0.0000000000000000000 ) ) ;
#162 = PRODUCT_RELATED_PRODUCT_CATEGORY ( 'detail', '', ( #25 ) ) ;
#163 = EDGE_LOOP ( 'NONE', ( #111 ) ) ;
#164 = CARTESIAN_POINT ( 'NONE',  ( 4.649795163492915187E-14, -1.660877433682184142E-15, 13.31754264805429955 ) ) ;
#165 = FACE_OUTER_BOUND ( 'NONE', #178, .T. ) ;
#166 = AXIS2_PLACEMENT_3D ( 'NONE', #207, #7, #96 ) ;
#167 = CARTESIAN_POINT ( 'NONE',  ( 4.391358375696922564E-14, -1.540281174891817232E-15, 12.57735026918962262 ) ) ;
#168 = ORIENTED_EDGE ( 'NONE', *, *, #29, .F. ) ;
#169 = CARTESIAN_POINT ( 'NONE',  ( 4.391358375696922564E-14, 0.9999999999999983347, 12.57735026918962262 ) ) ;
#170 = CARTESIAN_POINT ( 'NONE',  ( 4.478645409167999951E-14, -1.599743823545911566E-15, 12.82735026918961907 ) ) ;
#171 = PERSON_AND_ORGANIZATION_ROLE ( 'creator' ) ;
#172 = ADVANCED_FACE ( 'NONE', ( #117, #138 ), #124, .F. ) ;
#173 = PERSON ( 'UNSPECIFIED', 'UNSPECIFIED', 'UNSPECIFIED', ('UNSPECIFIED'), ('UNSPECIFIED'), ('UNSPECIFIED') ) ;
#174 = AXIS2_PLACEMENT_3D ( 'NONE', #221, #57, #131 ) ;
#175 = CALENDAR_DATE ( 2021, 10, 11 ) ;
#176 = AXIS2_PLACEMENT_3D ( 'NONE', #21, #198, #161 ) ;
#177 = CC_DESIGN_PERSON_AND_ORGANIZATION_ASSIGNMENT ( #54, #129, ( #25 ) ) ;
#178 = EDGE_LOOP ( 'NONE', ( #66 ) ) ;
#179 = ORIENTED_EDGE ( 'NONE', *, *, #29, .T. ) ;
#180 = CC_DESIGN_PERSON_AND_ORGANIZATION_ASSIGNMENT ( #158, #127, ( #182 ) ) ;
#181 = CIRCLE ( 'NONE', #35, 1.066987298107778370 ) ;
#182 = PRODUCT_DEFINITION_FORMATION_WITH_SPECIFIED_SOURCE ( 'ANY', '', #25, .NOT_KNOWN. ) ;
#183 = CYLINDRICAL_SURFACE ( 'NONE', #139, 1.000000000000000000 ) ;
#184 = VERTEX_POINT ( 'NONE', #9 ) ;
#185 = CARTESIAN_POINT ( 'NONE',  ( 4.391358375696922564E-14, -1.517883041479706208E-15, 12.57735026918962262 ) ) ;
#186 = DIRECTION ( 'NONE',  ( 3.491481338843133355E-15, -1.224646799147353207E-16, 1.000000000000000000 ) ) ;
#187 = DIRECTION ( 'NONE',  ( -3.491481338843133355E-15, 1.224646799147353207E-16, -1.000000000000000000 ) ) ;
#188 = COORDINATED_UNIVERSAL_TIME_OFFSET ( 1, 0, .AHEAD. ) ;
#189 = APPROVAL ( #220, 'UNSPECIFIED' ) ;
#190 = APPROVAL_ROLE ( '' ) ;
#191 = CC_DESIGN_APPROVAL ( #189, ( #118 ) ) ;
#192 = SECURITY_CLASSIFICATION_LEVEL ( 'unclassified' ) ;
#193 = CARTESIAN_POINT ( 'NONE',  ( 2.015807690851626952E-15, -7.070501591499342043E-17, 0.5773502691896226224 ) ) ;
#194 = APPROVAL ( #18, 'UNSPECIFIED' ) ;
#195 = DATE_TIME_ROLE ( 'creation_date' ) ;
#196 = AXIS2_PLACEMENT_3D ( 'NONE', #113, #186, #81 ) ;
#197 = EDGE_LOOP ( 'NONE', ( #130 ) ) ;
#198 = DIRECTION ( 'NONE',  ( -3.491481338843133355E-15, 1.224646799147353207E-16, -1.000000000000000000 ) ) ;
#199 = UNCERTAINTY_MEASURE_WITH_UNIT (LENGTH_MEASURE( 1.000000000000000082E-05 ), #89, 'distance_accuracy_value', 'NONE');
#200 = ORIENTED_EDGE ( 'NONE', *, *, #6, .T. ) ;
#201 = CARTESIAN_POINT ( 'NONE',  ( 2.015807690851627347E-15, 1.000000000000000000, 0.5773502691896227335 ) ) ;
#202 = DIRECTION ( 'NONE',  ( 0.0000000000000000000, -1.000000000000000000, 0.0000000000000000000 ) ) ;
#203 = ADVANCED_FACE ( 'NONE', ( #30, #97 ), #119, .T. ) ;
#204 = ORIENTED_EDGE ( 'NONE', *, *, #152, .T. ) ;
#205 = DIRECTION ( 'NONE',  ( 4.275831445896958607E-31, 1.000000000000000000, 1.224646799147353207E-16 ) ) ;
#206 = CIRCLE ( 'NONE', #176, 1.250000000000001554 ) ;
#207 = CARTESIAN_POINT ( 'NONE',  ( 0.0000000000000000000, 0.0000000000000000000, 0.0000000000000000000 ) ) ;
#208 = CC_DESIGN_PERSON_AND_ORGANIZATION_ASSIGNMENT ( #1, #237, ( #215 ) ) ;
#209 = COORDINATED_UNIVERSAL_TIME_OFFSET ( 1, 0, .AHEAD. ) ;
#210 = AXIS2_PLACEMENT_3D ( 'NONE', #185, #137, #62 ) ;
#211 =( GEOMETRIC_REPRESENTATION_CONTEXT ( 3 ) GLOBAL_UNCERTAINTY_ASSIGNED_CONTEXT ( ( #199 ) ) GLOBAL_UNIT_ASSIGNED_CONTEXT ( ( #89, #34, #238 ) ) REPRESENTATION_CONTEXT ( 'NONE', 'WORKASPACE' ) );
#212 = MECHANICAL_CONTEXT ( 'NONE', #74, 'mechanical' ) ;
#213 = CALENDAR_DATE ( 2021, 10, 11 ) ;
#214 = AXIS2_PLACEMENT_3D ( 'NONE', #164, #98, #67 ) ;
#215 = SECURITY_CLASSIFICATION ( '', '', #192 ) ;
#216 = PERSON_AND_ORGANIZATION ( #173, #58 ) ;
#217 = ADVANCED_FACE ( 'NONE', ( #39, #148 ), #86, .T. ) ;
#218 = EDGE_LOOP ( 'NONE', ( #4 ) ) ;
#219 = FACE_OUTER_BOUND ( 'NONE', #224, .T. ) ;
#220 = APPROVAL_STATUS ( 'not_yet_approved' ) ;
#221 = CARTESIAN_POINT ( 'NONE',  ( 1.501336975702547217E-13, -5.265981236333618470E-15, 43.00000000000000000 ) ) ;
#222 = CC_DESIGN_PERSON_AND_ORGANIZATION_ASSIGNMENT ( #93, #53, ( #182 ) ) ;
#223 = ORIENTED_EDGE ( 'NONE', *, *, #114, .F. ) ;
#224 = EDGE_LOOP ( 'NONE', ( #95 ) ) ;
#225 = DIRECTION ( 'NONE',  ( -3.491481338843133355E-15, 1.224646799147353207E-16, -1.000000000000000000 ) ) ;
#226 = CC_DESIGN_SECURITY_CLASSIFICATION ( #215, ( #182 ) ) ;
#227 = EDGE_LOOP ( 'NONE', ( #155 ) ) ;
#228 = PRODUCT_DEFINITION_SHAPE ( 'NONE', 'NONE',  #118 ) ;
#229 = CARTESIAN_POINT ( 'NONE',  ( 4.391358375696922564E-14, 7.498798913309264775E-33, 12.57735026918962262 ) ) ;
#230 = CC_DESIGN_DATE_AND_TIME_ASSIGNMENT ( #73, #141, ( #215 ) ) ;
#231 = DIRECTION ( 'NONE',  ( 0.0000000000000000000, 1.000000000000000000, 0.0000000000000000000 ) ) ;
#232 = DATE_AND_TIME ( #47, #52 ) ;
#233 = VERTEX_POINT ( 'NONE', #10 ) ;
#234 = CLOSED_SHELL ( 'NONE', ( #203, #46, #122, #217, #142, #172 ) ) ;
#235 = ADVANCED_FACE ( 'NONE', ( #5 ), #28, .T. ) ;
#236 = FACE_OUTER_BOUND ( 'NONE', #147, .T. ) ;
#237 = PERSON_AND_ORGANIZATION_ROLE ( 'classification_officer' ) ;
#238 =( NAMED_UNIT ( * ) SI_UNIT ( $, .STERADIAN. ) SOLID_ANGLE_UNIT ( ) );
#239 = DATE_AND_TIME ( #16, #140 ) ;
#240 = EDGE_CURVE ( 'NONE', #84, #84, #99, .T. ) ;
#241 = CONICAL_SURFACE ( 'NONE', #109, 1732.050807568886512, 1.047197551196600074 ) ;
#242 = CARTESIAN_POINT ( 'NONE',  ( 0.0000000000000000000, 0.0000000000000000000, 0.0000000000000000000 ) ) ;
#243 = LOCAL_TIME ( 13, 11, 22.00000000000000000, #20 ) ;
ENDSEC;
END-ISO-10303-21;
