ISO-10303-21;
HEADER;
FILE_DESCRIPTION (( 'STEP AP203' ),
    '1' );
FILE_NAME ('958853.step',
    '2023-09-27T05:49:12',
    ( '' ),
    ( '' ),
    'SwSTEP 2.0',
    'SolidWorks 2022',
    '' );
FILE_SCHEMA (( 'CONFIG_CONTROL_DESIGN' ));
ENDSEC;

DATA;
#1 = AXIS2_PLACEMENT_3D ( 'NONE', #317, #139, #380 ) ;
#2 = CIRCLE ( 'NONE', #133, 0.1249999999999996808 ) ;
#3 = ADVANCED_FACE ( 'NONE', ( #223, #282 ), #218, .T. ) ;
#4 = ORIENTED_EDGE ( 'NONE', *, *, #238, .T. ) ;
#5 = PLANE ( 'NONE',  #34 ) ;
#6 = EDGE_LOOP ( 'NONE', ( #36 ) ) ;
#7 = EDGE_CURVE ( 'NONE', #258, #258, #207, .T. ) ;
#8 = DIRECTION ( 'NONE',  ( -1.000000000000000000, 0.000000000000000000, 3.491481338843133355E-15 ) ) ;
#9 = CONICAL_SURFACE ( 'NONE', #70, 0.1262286759728522834, 1.047197551196614729 ) ;
#10 = EDGE_LOOP ( 'NONE', ( #370 ) ) ;
#11 = DIRECTION ( 'NONE',  ( 1.000000000000000000, 0.000000000000000000, -2.726280821563717999E-15 ) ) ;
#12 = PERSON_AND_ORGANIZATION_ROLE ( 'creator' ) ;
#13 = ORIENTED_EDGE ( 'NONE', *, *, #188, .F. ) ;
#14 = CARTESIAN_POINT ( 'NONE',  ( 1.326762908760390423E-13, 0.000000000000000000, 38.00000000000000000 ) ) ;
#15 = COORDINATED_UNIVERSAL_TIME_OFFSET ( 1, 0, .AHEAD. ) ;
#16 = FACE_OUTER_BOUND ( 'NONE', #214, .T. ) ;
#17 = APPROVAL ( #259, 'UNSPECIFIED' ) ;
#18 = APPROVAL_PERSON_ORGANIZATION ( #60, #250, #252 ) ;
#19 = AXIS2_PLACEMENT_3D ( 'NONE', #112, #145, #315 ) ;
#20 = DIRECTION ( 'NONE',  ( 1.000000000000000000, 0.000000000000000000, -3.517438708421121379E-15 ) ) ;
#21 = DIRECTION ( 'NONE',  ( -1.000000000000000000, 0.000000000000000000, 4.625929269271498733E-15 ) ) ;
#22 = CALENDAR_DATE ( 2023, 27, 9 ) ;
#23 = EDGE_LOOP ( 'NONE', ( #134 ) ) ;
#24 = CARTESIAN_POINT ( 'NONE',  ( 1.396592535537244862E-15, 0.000000000000000000, 0.3999999999999975797 ) ) ;
#25 = SHAPE_DEFINITION_REPRESENTATION ( #47, #183 ) ;
#26 = DIRECTION ( 'NONE',  ( 1.000000000000000000, 0.000000000000000000, -3.517438708421121379E-15 ) ) ;
#27 = ADVANCED_FACE ( 'NONE', ( #46, #286 ), #394, .F. ) ;
#28 =( LENGTH_UNIT ( ) NAMED_UNIT ( * ) SI_UNIT ( .MILLI., .METRE. ) );
#29 = DIRECTION ( 'NONE',  ( 0.000000000000000000, 0.000000000000000000, 1.000000000000000000 ) ) ;
#30 = AXIS2_PLACEMENT_3D ( 'NONE', #14, #196, #253 ) ;
#31 = VERTEX_POINT ( 'NONE', #124 ) ;
#32 = ADVANCED_FACE ( 'NONE', ( #16 ), #195, .F. ) ;
#33 = CLOSED_SHELL ( 'NONE', ( #337, #107, #181, #99, #393, #356, #202, #3, #390, #55, #153, #27, #38, #361, #305, #32 ) ) ;
#34 = AXIS2_PLACEMENT_3D ( 'NONE', #135, #301, #8 ) ;
#35 = ORGANIZATION ( 'UNSPECIFIED', 'UNSPECIFIED', '' ) ;
#36 = ORIENTED_EDGE ( 'NONE', *, *, #273, .T. ) ;
#37 = FACE_OUTER_BOUND ( 'NONE', #332, .T. ) ;
#38 = ADVANCED_FACE ( 'NONE', ( #170, #304 ), #365, .T. ) ;
#39 = DIRECTION ( 'NONE',  ( 3.491481338843133355E-15, -0.000000000000000000, 1.000000000000000000 ) ) ;
#40 = FACE_OUTER_BOUND ( 'NONE', #336, .T. ) ;
#41 = ORIENTED_EDGE ( 'NONE', *, *, #261, .T. ) ;
#42 = CIRCLE ( 'NONE', #272, 0.1695299461620738968 ) ;
#43 = PERSON_AND_ORGANIZATION_ROLE ( 'design_supplier' ) ;
#44 = CARTESIAN_POINT ( 'NONE',  ( 7.362902342972408332E-15, 0.000000000000000000, 2.108819045102509726 ) ) ;
#45 = CC_DESIGN_DATE_AND_TIME_ASSIGNMENT ( #144, #263, ( #388 ) ) ;
#46 = FACE_OUTER_BOUND ( 'NONE', #74, .T. ) ;
#47 = PRODUCT_DEFINITION_SHAPE ( 'NONE', 'NONE',  #79 ) ;
#48 = CARTESIAN_POINT ( 'NONE',  ( 7.855833012397154573E-16, 0.000000000000000000, 0.2250000000000029754 ) ) ;
#49 = APPROVAL_DATE_TIME ( #254, #250 ) ;
#50 = EDGE_LOOP ( 'NONE', ( #109 ) ) ;
#51 = APPROVAL_PERSON_ORGANIZATION ( #225, #17, #167 ) ;
#52 = CARTESIAN_POINT ( 'NONE',  ( 0.2850000000000004752, 0.000000000000000000, 0.1083333333333342946 ) ) ;
#53 = PERSON_AND_ORGANIZATION ( #268, #35 ) ;
#54 = DIRECTION ( 'NONE',  ( -1.000000000000000000, 0.000000000000000000, 3.491481338843133355E-15 ) ) ;
#55 = ADVANCED_FACE ( 'NONE', ( #106, #302 ), #5, .F. ) ;
#56 = FACE_OUTER_BOUND ( 'NONE', #82, .T. ) ;
#57 = COORDINATED_UNIVERSAL_TIME_OFFSET ( 1, 0, .AHEAD. ) ;
#58 = EDGE_LOOP ( 'NONE', ( #173 ) ) ;
#59 = VERTEX_POINT ( 'NONE', #270 ) ;
#60 = PERSON_AND_ORGANIZATION ( #268, #35 ) ;
#61 = DIRECTION ( 'NONE',  ( 1.000000000000000000, 0.000000000000000000, -3.517438708421121379E-15 ) ) ;
#62 = VERTEX_POINT ( 'NONE', #296 ) ;
#63 = APPLICATION_CONTEXT ( 'configuration controlled 3d designs of mechanical parts and assemblies' ) ;
#64 = AXIS2_PLACEMENT_3D ( 'NONE', #87, #194, #21 ) ;
#65 = DIRECTION ( 'NONE',  ( 3.491481338843133355E-15, -0.000000000000000000, 1.000000000000000000 ) ) ;
#66 = VERTEX_POINT ( 'NONE', #72 ) ;
#67 = AXIS2_PLACEMENT_3D ( 'NONE', #347, #262, #325 ) ;
#68 = EDGE_CURVE ( 'NONE', #150, #150, #208, .T. ) ;
#69 = DIRECTION ( 'NONE',  ( 3.491481338843133355E-15, -0.000000000000000000, 1.000000000000000000 ) ) ;
#70 = AXIS2_PLACEMENT_3D ( 'NONE', #244, #192, #368 ) ;
#71 = ORIENTED_EDGE ( 'NONE', *, *, #7, .F. ) ;
#72 = CARTESIAN_POINT ( 'NONE',  ( 1.200000000000132294, 0.000000000000000000, 37.99999999999999289 ) ) ;
#73 = DIRECTION ( 'NONE',  ( 1.000000000000000000, 0.000000000000000000, -2.726280821563717999E-15 ) ) ;
#74 = EDGE_LOOP ( 'NONE', ( #13 ) ) ;
#75 = CARTESIAN_POINT ( 'NONE',  ( 1.316288464743861212E-13, 0.000000000000000000, 37.69999999999999574 ) ) ;
#76 = PERSON_AND_ORGANIZATION ( #268, #35 ) ;
#77 = ORIENTED_EDGE ( 'NONE', *, *, #369, .F. ) ;
#78 = AXIS2_PLACEMENT_3D ( 'NONE', #306, #39, #276 ) ;
#79 = PRODUCT_DEFINITION ( 'UNKNOWN', '', #94, #298 ) ;
#80 = FACE_BOUND ( 'NONE', #212, .T. ) ;
#81 = DIRECTION ( 'NONE',  ( 1.000000000000000000, 0.000000000000000000, -3.471349061028149303E-15 ) ) ;
#82 = EDGE_LOOP ( 'NONE', ( #156 ) ) ;
#83 = CARTESIAN_POINT ( 'NONE',  ( -2.764673470839107846E-32, 0.000000000000000000, -7.918339531366804846E-18 ) ) ;
#84 = CC_DESIGN_PERSON_AND_ORGANIZATION_ASSIGNMENT ( #53, #12, ( #94 ) ) ;
#85 = ORIENTED_EDGE ( 'NONE', *, *, #281, .F. ) ;
#86 = APPROVAL_PERSON_ORGANIZATION ( #88, #164, #307 ) ;
#87 = CARTESIAN_POINT ( 'NONE',  ( 1.316288464743861212E-13, 0.000000000000000000, 37.69999999999999574 ) ) ;
#88 = PERSON_AND_ORGANIZATION ( #268, #35 ) ;
#89 = DIRECTION ( 'NONE',  ( 1.000000000000000000, 0.000000000000000000, -3.469446951953622866E-15 ) ) ;
#90 = ORIENTED_EDGE ( 'NONE', *, *, #344, .T. ) ;
#91 = DIRECTION ( 'NONE',  ( 1.000000000000000000, 0.000000000000000000, 0.000000000000000000 ) ) ;
#92 = MECHANICAL_CONTEXT ( 'NONE', #122, 'mechanical' ) ;
#93 = CIRCLE ( 'NONE', #78, 0.2850000000000000866 ) ;
#94 = PRODUCT_DEFINITION_FORMATION_WITH_SPECIFIED_SOURCE ( 'ANY', '', #257, .NOT_KNOWN. ) ;
#95 = CC_DESIGN_PERSON_AND_ORGANIZATION_ASSIGNMENT ( #385, #221, ( #79 ) ) ;
#96 = CARTESIAN_POINT ( 'NONE',  ( 0.1250000000000015266, 0.000000000000000000, 0.3999999999999971356 ) ) ;
#97 = VERTEX_POINT ( 'NONE', #127 ) ;
#98 = CIRCLE ( 'NONE', #297, 1.499999999999995781 ) ;
#99 = ADVANCED_FACE ( 'NONE', ( #80, #333 ), #271, .T. ) ;
#100 = CARTESIAN_POINT ( 'NONE',  ( 3.782438117080129010E-16, 0.000000000000000000, 0.1083333333333352799 ) ) ;
#101 = ORIENTED_EDGE ( 'NONE', *, *, #210, .T. ) ;
#102 = CYLINDRICAL_SURFACE ( 'NONE', #265, 0.1249999999999998890 ) ;
#103 = AXIS2_PLACEMENT_3D ( 'NONE', #274, #217, #279 ) ;
#104 = DIRECTION ( 'NONE',  ( 3.491481338843133355E-15, -0.000000000000000000, 1.000000000000000000 ) ) ;
#105 = VERTEX_POINT ( 'NONE', #386 ) ;
#106 = FACE_BOUND ( 'NONE', #322, .T. ) ;
#107 = ADVANCED_FACE ( 'NONE', ( #155, #247 ), #9, .T. ) ;
#108 = CARTESIAN_POINT ( 'NONE',  ( 1.326762908760390423E-13, 0.000000000000000000, 38.00000000000000000 ) ) ;
#109 = ORIENTED_EDGE ( 'NONE', *, *, #324, .F. ) ;
#110 =( GEOMETRIC_REPRESENTATION_CONTEXT ( 3 ) GLOBAL_UNCERTAINTY_ASSIGNED_CONTEXT ( ( #239 ) ) GLOBAL_UNIT_ASSIGNED_CONTEXT ( ( #28, #329, #182 ) ) REPRESENTATION_CONTEXT ( 'NONE', 'WORKASPACE' ) );
#111 = LOCAL_TIME ( 7, 49, 12.00000000000000000, #57 ) ;
#112 = CARTESIAN_POINT ( 'NONE',  ( 2.483568312198037449E-14, 0.000000000000000000, 7.113222357994737344 ) ) ;
#113 = DATE_TIME_ROLE ( 'creation_date' ) ;
#114 = FACE_OUTER_BOUND ( 'NONE', #376, .T. ) ;
#115 = FACE_OUTER_BOUND ( 'NONE', #303, .T. ) ;
#116 = CALENDAR_DATE ( 2023, 27, 9 ) ;
#117 = ORIENTED_EDGE ( 'NONE', *, *, #261, .F. ) ;
#118 = AXIS2_PLACEMENT_3D ( 'NONE', #108, #220, #335 ) ;
#119 = DIRECTION ( 'NONE',  ( 1.000000000000000000, 0.000000000000000000, -4.625929269271492422E-15 ) ) ;
#120 = ORIENTED_EDGE ( 'NONE', *, *, #125, .T. ) ;
#121 = DIRECTION ( 'NONE',  ( 3.491481338843133355E-15, -0.000000000000000000, 1.000000000000000000 ) ) ;
#122 = APPLICATION_CONTEXT ( 'configuration controlled 3d designs of mechanical parts and assemblies' ) ;
#123 = CC_DESIGN_PERSON_AND_ORGANIZATION_ASSIGNMENT ( #76, #169, ( #388 ) ) ;
#124 = CARTESIAN_POINT ( 'NONE',  ( 0.1262286759728522834, 0.000000000000000000, -4.407250665860903090E-16 ) ) ;
#125 = EDGE_CURVE ( 'NONE', #97, #97, #93, .T. ) ;
#126 = CARTESIAN_POINT ( 'NONE',  ( 0.000000000000000000, 0.000000000000000000, 0.000000000000000000 ) ) ;
#127 = CARTESIAN_POINT ( 'NONE',  ( 0.2850000000000011413, 0.000000000000000000, 0.2916666666666682395 ) ) ;
#128 = CIRCLE ( 'NONE', #277, 0.1695299461620738968 ) ;
#129 = DIRECTION ( 'NONE',  ( 3.491481338843133355E-15, -0.000000000000000000, 1.000000000000000000 ) ) ;
#130 = EDGE_LOOP ( 'NONE', ( #165 ) ) ;
#131 = EDGE_LOOP ( 'NONE', ( #4 ) ) ;
#132 = ORIENTED_EDGE ( 'NONE', *, *, #188, .T. ) ;
#133 = AXIS2_PLACEMENT_3D ( 'NONE', #171, #138, #89 ) ;
#134 = ORIENTED_EDGE ( 'NONE', *, *, #68, .T. ) ;
#135 = CARTESIAN_POINT ( 'NONE',  ( 1.396592535537253342E-15, 0.1695299461620738968, 0.3999999999999999667 ) ) ;
#136 = DIRECTION ( 'NONE',  ( 1.000000000000000000, 0.000000000000000000, 0.000000000000000000 ) ) ;
#137 = VERTEX_POINT ( 'NONE', #309 ) ;
#138 = DIRECTION ( 'NONE',  ( 3.491481338843133355E-15, -0.000000000000000000, 1.000000000000000000 ) ) ;
#139 = DIRECTION ( 'NONE',  ( 3.491481338843133355E-15, -0.000000000000000000, 1.000000000000000000 ) ) ;
#140 = CIRCLE ( 'NONE', #103, 1.199999999999999734 ) ;
#141 = CC_DESIGN_PERSON_AND_ORGANIZATION_ASSIGNMENT ( #267, #392, ( #257 ) ) ;
#142 = CYLINDRICAL_SURFACE ( 'NONE', #149, 1.499999999999997780 ) ;
#143 = DIRECTION ( 'NONE',  ( 3.491481338843133355E-15, -0.000000000000000000, 1.000000000000000000 ) ) ;
#144 = DATE_AND_TIME ( #22, #197 ) ;
#145 = DIRECTION ( 'NONE',  ( 3.491481338843133355E-15, -0.000000000000000000, 1.000000000000000000 ) ) ;
#146 = VERTEX_POINT ( 'NONE', #283 ) ;
#147 = FACE_OUTER_BOUND ( 'NONE', #216, .T. ) ;
#148 = EDGE_CURVE ( 'NONE', #66, #66, #140, .T. ) ;
#149 = AXIS2_PLACEMENT_3D ( 'NONE', #384, #226, #119 ) ;
#150 = VERTEX_POINT ( 'NONE', #96 ) ;
#151 = AXIS2_PLACEMENT_3D ( 'NONE', #100, #213, #242 ) ;
#152 = AXIS2_PLACEMENT_3D ( 'NONE', #44, #129, #73 ) ;
#153 = ADVANCED_FACE ( 'NONE', ( #372, #364 ), #102, .T. ) ;
#154 = VERTEX_POINT ( 'NONE', #343 ) ;
#155 = FACE_OUTER_BOUND ( 'NONE', #334, .T. ) ;
#156 = ORIENTED_EDGE ( 'NONE', *, *, #273, .F. ) ;
#157 = CARTESIAN_POINT ( 'NONE',  ( 1.396592535537244862E-15, 0.000000000000000000, 0.3999999999999975797 ) ) ;
#158 = VERTEX_POINT ( 'NONE', #371 ) ;
#159 = CYLINDRICAL_SURFACE ( 'NONE', #360, 0.2850000000000000866 ) ;
#160 = CC_DESIGN_APPROVAL ( #17, ( #94 ) ) ;
#161 = ORIENTED_EDGE ( 'NONE', *, *, #7, .T. ) ;
#162 = DIRECTION ( 'NONE',  ( 1.000000000000000000, 0.000000000000000000, -3.469446951953611033E-15 ) ) ;
#163 = DIRECTION ( 'NONE',  ( 1.000000000000000000, 0.000000000000000000, -3.471349061028149303E-15 ) ) ;
#164 = APPROVAL ( #320, 'UNSPECIFIED' ) ;
#165 = ORIENTED_EDGE ( 'NONE', *, *, #176, .T. ) ;
#166 = CARTESIAN_POINT ( 'NONE',  ( 3.200524560606095299E-16, 0.000000000000000000, 0.09166666666666350993 ) ) ;
#167 = APPROVAL_ROLE ( '' ) ;
#168 = DIRECTION ( 'NONE',  ( 1.000000000000000000, 0.000000000000000000, 0.000000000000000000 ) ) ;
#169 = PERSON_AND_ORGANIZATION_ROLE ( 'classification_officer' ) ;
#170 = FACE_OUTER_BOUND ( 'NONE', #50, .T. ) ;
#171 = CARTESIAN_POINT ( 'NONE',  ( 6.459240476859788030E-15, 0.000000000000000000, 1.849999999999997424 ) ) ;
#172 = APPROVAL_DATE_TIME ( #373, #164 ) ;
#173 = ORIENTED_EDGE ( 'NONE', *, *, #206, .T. ) ;
#174 = EDGE_LOOP ( 'NONE', ( #275 ) ) ;
#175 = APPROVAL_STATUS ( 'not_yet_approved' ) ;
#176 = EDGE_CURVE ( 'NONE', #374, #374, #98, .T. ) ;
#177 = DIRECTION ( 'NONE',  ( 3.491481338843133355E-15, -0.000000000000000000, 1.000000000000000000 ) ) ;
#178 = CIRCLE ( 'NONE', #205, 0.2850000000000000866 ) ;
#179 = CYLINDRICAL_SURFACE ( 'NONE', #30, 0.1695299461620738968 ) ;
#180 = CARTESIAN_POINT ( 'NONE',  ( 1.500000000000024869, 0.000000000000000000, 7.113222357994732015 ) ) ;
#181 = ADVANCED_FACE ( 'NONE', ( #375, #40 ), #340, .T. ) ;
#182 =( NAMED_UNIT ( * ) SI_UNIT ( $, .STERADIAN. ) SOLID_ANGLE_UNIT ( ) );
#183 = ADVANCED_BREP_SHAPE_REPRESENTATION ( '958853', ( #381, #327 ), #110 ) ;
#184 = AXIS2_PLACEMENT_3D ( 'NONE', #288, #264, #20 ) ;
#185 = CC_DESIGN_PERSON_AND_ORGANIZATION_ASSIGNMENT ( #292, #43, ( #94 ) ) ;
#186 = CIRCLE ( 'NONE', #314, 0.1695299461620738968 ) ;
#187 = EDGE_LOOP ( 'NONE', ( #294 ) ) ;
#188 = EDGE_CURVE ( 'NONE', #154, #154, #377, .T. ) ;
#189 = FACE_OUTER_BOUND ( 'NONE', #363, .T. ) ;
#190 = DIRECTION ( 'NONE',  ( 1.000000000000000000, 0.000000000000000000, -4.625929269271498733E-15 ) ) ;
#191 = CALENDAR_DATE ( 2023, 27, 9 ) ;
#192 = DIRECTION ( 'NONE',  ( 3.491481338843133355E-15, -0.000000000000000000, 1.000000000000000000 ) ) ;
#193 = ORIENTED_EDGE ( 'NONE', *, *, #148, .T. ) ;
#194 = DIRECTION ( 'NONE',  ( -3.491481338843133355E-15, 0.000000000000000000, -1.000000000000000000 ) ) ;
#195 = PLANE ( 'NONE',  #219 ) ;
#196 = DIRECTION ( 'NONE',  ( 3.491481338843133355E-15, -0.000000000000000000, 1.000000000000000000 ) ) ;
#197 = LOCAL_TIME ( 7, 49, 12.00000000000000000, #229 ) ;
#198 = CARTESIAN_POINT ( 'NONE',  ( 1.076540079476635283E-15, 0.000000000000000000, 0.3083333333333340698 ) ) ;
#199 = DIRECTION ( 'NONE',  ( 1.000000000000000000, 0.000000000000000000, -3.491481338843132961E-15 ) ) ;
#200 = APPROVAL_DATE_TIME ( #289, #17 ) ;
#201 = EDGE_LOOP ( 'NONE', ( #246 ) ) ;
#202 = ADVANCED_FACE ( 'NONE', ( #189, #37 ), #159, .T. ) ;
#203 = CARTESIAN_POINT ( 'NONE',  ( 0.000000000000000000, 0.000000000000000000, 0.000000000000000000 ) ) ;
#204 = FACE_OUTER_BOUND ( 'NONE', #249, .T. ) ;
#205 = AXIS2_PLACEMENT_3D ( 'NONE', #166, #65, #81 ) ;
#206 = EDGE_CURVE ( 'NONE', #146, #146, #186, .T. ) ;
#207 = CIRCLE ( 'NONE', #387, 0.2850000000000000866 ) ;
#208 = CIRCLE ( 'NONE', #362, 0.1250000000000001110 ) ;
#209 = CONICAL_SURFACE ( 'NONE', #184, 0.1695299461620738968, 1.047197551196604293 ) ;
#210 = EDGE_CURVE ( 'NONE', #137, #137, #178, .T. ) ;
#211 = CARTESIAN_POINT ( 'NONE',  ( 7.362902342972408332E-15, 0.000000000000000000, 2.108819045102509726 ) ) ;
#212 = EDGE_LOOP ( 'NONE', ( #117 ) ) ;
#213 = DIRECTION ( 'NONE',  ( -3.491481338843133355E-15, 0.000000000000000000, -1.000000000000000000 ) ) ;
#214 = EDGE_LOOP ( 'NONE', ( #193 ) ) ;
#215 = DIRECTION ( 'NONE',  ( 3.491481338843133355E-15, -0.000000000000000000, 1.000000000000000000 ) ) ;
#216 = EDGE_LOOP ( 'NONE', ( #308 ) ) ;
#217 = DIRECTION ( 'NONE',  ( 3.491481338843133355E-15, -0.000000000000000000, 1.000000000000000000 ) ) ;
#218 = CONICAL_SURFACE ( 'NONE', #313, 0.2850000000000000866, 1.047197551196604293 ) ;
#219 = AXIS2_PLACEMENT_3D ( 'NONE', #312, #383, #54 ) ;
#220 = DIRECTION ( 'NONE',  ( 3.491481338843133355E-15, -0.000000000000000000, 1.000000000000000000 ) ) ;
#221 = PERSON_AND_ORGANIZATION_ROLE ( 'creator' ) ;
#222 = AXIS2_PLACEMENT_3D ( 'NONE', #295, #345, #350 ) ;
#223 = FACE_BOUND ( 'NONE', #231, .T. ) ;
#224 = FACE_BOUND ( 'NONE', #58, .T. ) ;
#225 = PERSON_AND_ORGANIZATION ( #268, #35 ) ;
#226 = DIRECTION ( 'NONE',  ( 3.491481338843133355E-15, -0.000000000000000000, 1.000000000000000000 ) ) ;
#227 = ORIENTED_EDGE ( 'NONE', *, *, #68, .F. ) ;
#228 = FACE_OUTER_BOUND ( 'NONE', #359, .T. ) ;
#229 = COORDINATED_UNIVERSAL_TIME_OFFSET ( 1, 0, .AHEAD. ) ;
#230 = LOCAL_TIME ( 7, 49, 12.00000000000000000, #379 ) ;
#231 = EDGE_LOOP ( 'NONE', ( #284 ) ) ;
#232 = DIRECTION ( 'NONE',  ( 3.491481338843133355E-15, -0.000000000000000000, 1.000000000000000000 ) ) ;
#233 = FACE_BOUND ( 'NONE', #201, .T. ) ;
#234 = APPLICATION_PROTOCOL_DEFINITION ( 'international standard', 'config_control_design', 1994, #122 ) ;
#235 = CC_DESIGN_APPROVAL ( #250, ( #79 ) ) ;
#236 = APPLICATION_PROTOCOL_DEFINITION ( 'international standard', 'config_control_design', 1994, #63 ) ;
#237 = AXIS2_PLACEMENT_3D ( 'NONE', #83, #232, #293 ) ;
#238 = EDGE_CURVE ( 'NONE', #318, #318, #2, .T. ) ;
#239 = UNCERTAINTY_MEASURE_WITH_UNIT (LENGTH_MEASURE( 1.000000000000000082E-05 ), #28, 'distance_accuracy_value', 'NONE');
#240 = EDGE_LOOP ( 'NONE', ( #355 ) ) ;
#241 = CARTESIAN_POINT ( 'NONE',  ( 1.500000000000127232, 0.000000000000000000, 37.69999999999998863 ) ) ;
#242 = DIRECTION ( 'NONE',  ( -1.000000000000000000, 0.000000000000000000, 3.471349061028149303E-15 ) ) ;
#243 = ORIENTED_EDGE ( 'NONE', *, *, #125, .F. ) ;
#244 = CARTESIAN_POINT ( 'NONE',  ( 0.000000000000000000, 0.000000000000000000, 0.000000000000000000 ) ) ;
#245 = LOCAL_TIME ( 7, 49, 12.00000000000000000, #15 ) ;
#246 = ORIENTED_EDGE ( 'NONE', *, *, #148, .F. ) ;
#247 = FACE_BOUND ( 'NONE', #240, .T. ) ;
#248 = DIRECTION ( 'NONE',  ( 3.491481338843133355E-15, -0.000000000000000000, 1.000000000000000000 ) ) ;
#249 = EDGE_LOOP ( 'NONE', ( #41 ) ) ;
#250 = APPROVAL ( #175, 'UNSPECIFIED' ) ;
#251 = CARTESIAN_POINT ( 'NONE',  ( 0.1250000000000061340, 0.000000000000000000, 1.849999999999996980 ) ) ;
#252 = APPROVAL_ROLE ( '' ) ;
#253 = DIRECTION ( 'NONE',  ( 1.000000000000000000, 0.000000000000000000, 0.000000000000000000 ) ) ;
#254 = DATE_AND_TIME ( #311, #245 ) ;
#255 = CIRCLE ( 'NONE', #67, 0.1695299461620738968 ) ;
#256 = EDGE_LOOP ( 'NONE', ( #71 ) ) ;
#257 = PRODUCT ( '958853', '958853', '', ( #92 ) ) ;
#258 = VERTEX_POINT ( 'NONE', #52 ) ;
#259 = APPROVAL_STATUS ( 'not_yet_approved' ) ;
#260 = CARTESIAN_POINT ( 'NONE',  ( 3.782438117080129010E-16, 0.000000000000000000, 0.1083333333333352799 ) ) ;
#261 = EDGE_CURVE ( 'NONE', #158, #158, #255, .T. ) ;
#262 = DIRECTION ( 'NONE',  ( 3.491481338843133355E-15, -0.000000000000000000, 1.000000000000000000 ) ) ;
#263 = DATE_TIME_ROLE ( 'classification_date' ) ;
#264 = DIRECTION ( 'NONE',  ( 3.491481338843133355E-15, -0.000000000000000000, 1.000000000000000000 ) ) ;
#265 = AXIS2_PLACEMENT_3D ( 'NONE', #338, #104, #136 ) ;
#266 = CARTESIAN_POINT ( 'NONE',  ( 1.326762908760390423E-13, 0.000000000000000000, 38.00000000000000000 ) ) ;
#267 = PERSON_AND_ORGANIZATION ( #268, #35 ) ;
#268 = PERSON ( 'UNSPECIFIED', 'UNSPECIFIED', 'UNSPECIFIED', ('UNSPECIFIED'), ('UNSPECIFIED'), ('UNSPECIFIED') ) ;
#269 = CIRCLE ( 'NONE', #367, 0.1262286759728522834 ) ;
#270 = CARTESIAN_POINT ( 'NONE',  ( 0.2850000000000011968, 0.000000000000000000, 0.3083333333333330706 ) ) ;
#271 = CONICAL_SURFACE ( 'NONE', #151, 0.2850000000000000866, 1.047197551196604293 ) ;
#272 = AXIS2_PLACEMENT_3D ( 'NONE', #310, #143, #26 ) ;
#273 = EDGE_CURVE ( 'NONE', #105, #105, #128, .T. ) ;
#274 = CARTESIAN_POINT ( 'NONE',  ( 1.326762908760390423E-13, 0.000000000000000000, 38.00000000000000000 ) ) ;
#275 = ORIENTED_EDGE ( 'NONE', *, *, #238, .F. ) ;
#276 = DIRECTION ( 'NONE',  ( 1.000000000000000000, 0.000000000000000000, -3.423796334164749744E-15 ) ) ;
#277 = AXIS2_PLACEMENT_3D ( 'NONE', #24, #291, #378 ) ;
#278 = CARTESIAN_POINT ( 'NONE',  ( 1.326762908760390423E-13, 0.000000000000000000, 38.00000000000000000 ) ) ;
#279 = DIRECTION ( 'NONE',  ( 1.000000000000000000, 0.000000000000000000, -5.782411586589358033E-15 ) ) ;
#280 = SECURITY_CLASSIFICATION_LEVEL ( 'unclassified' ) ;
#281 = EDGE_CURVE ( 'NONE', #59, #59, #349, .T. ) ;
#282 = FACE_OUTER_BOUND ( 'NONE', #187, .T. ) ;
#283 = CARTESIAN_POINT ( 'NONE',  ( 0.1695299461620746739, 0.000000000000000000, 0.2250000000000023925 ) ) ;
#284 = ORIENTED_EDGE ( 'NONE', *, *, #344, .F. ) ;
#285 = EDGE_LOOP ( 'NONE', ( #161 ) ) ;
#286 = FACE_OUTER_BOUND ( 'NONE', #131, .T. ) ;
#287 = AXIS2_PLACEMENT_3D ( 'NONE', #266, #391, #91 ) ;
#288 = CARTESIAN_POINT ( 'NONE',  ( 7.855833012397154573E-16, 0.000000000000000000, 0.2250000000000029754 ) ) ;
#289 = DATE_AND_TIME ( #116, #299 ) ;
#290 = DIRECTION ( 'NONE',  ( -1.000000000000000000, 0.000000000000000000, 3.423796334164749744E-15 ) ) ;
#291 = DIRECTION ( 'NONE',  ( 3.491481338843133355E-15, -0.000000000000000000, 1.000000000000000000 ) ) ;
#292 = PERSON_AND_ORGANIZATION ( #268, #35 ) ;
#293 = DIRECTION ( 'NONE',  ( 1.000000000000000000, 0.000000000000000000, -3.491481338843133355E-15 ) ) ;
#294 = ORIENTED_EDGE ( 'NONE', *, *, #281, .T. ) ;
#295 = CARTESIAN_POINT ( 'NONE',  ( 1.076540079476635283E-15, 0.000000000000000000, 0.3083333333333340698 ) ) ;
#296 = CARTESIAN_POINT ( 'NONE',  ( 0.1695299461620752013, 0.000000000000000000, 0.3749999999999997224 ) ) ;
#297 = AXIS2_PLACEMENT_3D ( 'NONE', #75, #215, #190 ) ;
#298 = DESIGN_CONTEXT ( 'detailed design', #63, 'design' ) ;
#299 = LOCAL_TIME ( 7, 49, 12.00000000000000000, #316 ) ;
#300 = CC_DESIGN_SECURITY_CLASSIFICATION ( #388, ( #94 ) ) ;
#301 = DIRECTION ( 'NONE',  ( -3.491481338843133355E-15, 0.000000000000000000, -1.000000000000000000 ) ) ;
#302 = FACE_OUTER_BOUND ( 'NONE', #6, .T. ) ;
#303 = EDGE_LOOP ( 'NONE', ( #90 ) ) ;
#304 = FACE_BOUND ( 'NONE', #346, .T. ) ;
#305 = ADVANCED_FACE ( 'NONE', ( #233, #357 ), #395, .T. ) ;
#306 = CARTESIAN_POINT ( 'NONE',  ( 1.018348723829256169E-15, 0.000000000000000000, 0.2916666666666692387 ) ) ;
#307 = APPROVAL_ROLE ( '' ) ;
#308 = ORIENTED_EDGE ( 'NONE', *, *, #324, .T. ) ;
#309 = CARTESIAN_POINT ( 'NONE',  ( 0.2850000000000004197, 0.000000000000000000, 0.09166666666666252461 ) ) ;
#310 = CARTESIAN_POINT ( 'NONE',  ( 1.309305502066176192E-15, 0.000000000000000000, 0.3750000000000003331 ) ) ;
#311 = CALENDAR_DATE ( 2023, 27, 9 ) ;
#312 = CARTESIAN_POINT ( 'NONE',  ( 1.326762908760390423E-13, 1.199999999999999734, 38.00000000000000000 ) ) ;
#313 = AXIS2_PLACEMENT_3D ( 'NONE', #198, #342, #290 ) ;
#314 = AXIS2_PLACEMENT_3D ( 'NONE', #48, #389, #61 ) ;
#315 = DIRECTION ( 'NONE',  ( 1.000000000000000000, 0.000000000000000000, -3.469446951953614189E-15 ) ) ;
#316 = COORDINATED_UNIVERSAL_TIME_OFFSET ( 1, 0, .AHEAD. ) ;
#317 = CARTESIAN_POINT ( 'NONE',  ( 6.459240476859799863E-15, 0.000000000000000000, 1.850000000000000977 ) ) ;
#318 = VERTEX_POINT ( 'NONE', #251 ) ;
#319 = FACE_OUTER_BOUND ( 'NONE', #352, .T. ) ;
#320 = APPROVAL_STATUS ( 'not_yet_approved' ) ;
#321 = ORIENTED_EDGE ( 'NONE', *, *, #206, .F. ) ;
#322 = EDGE_LOOP ( 'NONE', ( #227 ) ) ;
#323 = CYLINDRICAL_SURFACE ( 'NONE', #287, 0.1695299461620738968 ) ;
#324 = EDGE_CURVE ( 'NONE', #354, #354, #339, .T. ) ;
#325 = DIRECTION ( 'NONE',  ( 1.000000000000000000, 0.000000000000000000, -3.517438708421121379E-15 ) ) ;
#326 = AXIS2_PLACEMENT_3D ( 'NONE', #211, #69, #11 ) ;
#327 = AXIS2_PLACEMENT_3D ( 'NONE', #126, #29, #358 ) ;
#328 = CC_DESIGN_APPROVAL ( #164, ( #388 ) ) ;
#329 =( NAMED_UNIT ( * ) PLANE_ANGLE_UNIT ( ) SI_UNIT ( $, .RADIAN. ) );
#330 = CC_DESIGN_DATE_AND_TIME_ASSIGNMENT ( #351, #113, ( #79 ) ) ;
#331 = PRODUCT_RELATED_PRODUCT_CATEGORY ( 'detail', '', ( #257 ) ) ;
#332 = EDGE_LOOP ( 'NONE', ( #120 ) ) ;
#333 = FACE_OUTER_BOUND ( 'NONE', #285, .T. ) ;
#334 = EDGE_LOOP ( 'NONE', ( #366 ) ) ;
#335 = DIRECTION ( 'NONE',  ( 1.000000000000000000, 0.000000000000000000, 0.000000000000000000 ) ) ;
#336 = EDGE_LOOP ( 'NONE', ( #101 ) ) ;
#337 = ADVANCED_FACE ( 'NONE', ( #319 ), #382, .F. ) ;
#338 = CARTESIAN_POINT ( 'NONE',  ( 1.326762908760390423E-13, 0.000000000000000000, 38.00000000000000000 ) ) ;
#339 = CIRCLE ( 'NONE', #19, 1.500000000000000000 ) ;
#340 = CYLINDRICAL_SURFACE ( 'NONE', #118, 0.2850000000000000866 ) ;
#341 = CALENDAR_DATE ( 2023, 27, 9 ) ;
#342 = DIRECTION ( 'NONE',  ( -3.491481338843133355E-15, 0.000000000000000000, -1.000000000000000000 ) ) ;
#343 = CARTESIAN_POINT ( 'NONE',  ( 0.1590741737109366283, 0.000000000000000000, 2.108819045102509282 ) ) ;
#344 = EDGE_CURVE ( 'NONE', #62, #62, #42, .T. ) ;
#345 = DIRECTION ( 'NONE',  ( 3.491481338843133355E-15, -0.000000000000000000, 1.000000000000000000 ) ) ;
#346 = EDGE_LOOP ( 'NONE', ( #132 ) ) ;
#347 = CARTESIAN_POINT ( 'NONE',  ( 6.110092342975536620E-16, 0.000000000000000000, 0.1750000000000015432 ) ) ;
#348 = DIRECTION ( 'NONE',  ( 3.491481338843133355E-15, -0.000000000000000000, 1.000000000000000000 ) ) ;
#349 = CIRCLE ( 'NONE', #222, 0.2850000000000000866 ) ;
#350 = DIRECTION ( 'NONE',  ( 1.000000000000000000, 0.000000000000000000, -3.423796334164749744E-15 ) ) ;
#351 = DATE_AND_TIME ( #341, #230 ) ;
#352 = EDGE_LOOP ( 'NONE', ( #77 ) ) ;
#353 = FACE_OUTER_BOUND ( 'NONE', #10, .T. ) ;
#354 = VERTEX_POINT ( 'NONE', #180 ) ;
#355 = ORIENTED_EDGE ( 'NONE', *, *, #369, .T. ) ;
#356 = ADVANCED_FACE ( 'NONE', ( #114, #224 ), #209, .T. ) ;
#357 = FACE_OUTER_BOUND ( 'NONE', #130, .T. ) ;
#358 = DIRECTION ( 'NONE',  ( 1.000000000000000000, 0.000000000000000000, 0.000000000000000000 ) ) ;
#359 = EDGE_LOOP ( 'NONE', ( #321 ) ) ;
#360 = AXIS2_PLACEMENT_3D ( 'NONE', #278, #121, #168 ) ;
#361 = ADVANCED_FACE ( 'NONE', ( #353, #147 ), #142, .T. ) ;
#362 = AXIS2_PLACEMENT_3D ( 'NONE', #157, #248, #162 ) ;
#363 = EDGE_LOOP ( 'NONE', ( #85 ) ) ;
#364 = FACE_OUTER_BOUND ( 'NONE', #23, .T. ) ;
#365 = CONICAL_SURFACE ( 'NONE', #326, 0.1590741737109292453, 0.2617993877991426355 ) ;
#366 = ORIENTED_EDGE ( 'NONE', *, *, #210, .F. ) ;
#367 = AXIS2_PLACEMENT_3D ( 'NONE', #203, #177, #199 ) ;
#368 = DIRECTION ( 'NONE',  ( 1.000000000000000000, 0.000000000000000000, -3.491481338843132961E-15 ) ) ;
#369 = EDGE_CURVE ( 'NONE', #31, #31, #269, .T. ) ;
#370 = ORIENTED_EDGE ( 'NONE', *, *, #176, .F. ) ;
#371 = CARTESIAN_POINT ( 'NONE',  ( 0.1695299461620745074, 0.000000000000000000, 0.1750000000000009603 ) ) ;
#372 = FACE_OUTER_BOUND ( 'NONE', #174, .T. ) ;
#373 = DATE_AND_TIME ( #191, #111 ) ;
#374 = VERTEX_POINT ( 'NONE', #241 ) ;
#375 = FACE_OUTER_BOUND ( 'NONE', #256, .T. ) ;
#376 = EDGE_LOOP ( 'NONE', ( #243 ) ) ;
#377 = CIRCLE ( 'NONE', #152, 0.1590741737109292453 ) ;
#378 = DIRECTION ( 'NONE',  ( 1.000000000000000000, 0.000000000000000000, -3.517438708421121379E-15 ) ) ;
#379 = COORDINATED_UNIVERSAL_TIME_OFFSET ( 1, 0, .AHEAD. ) ;
#380 = DIRECTION ( 'NONE',  ( 1.000000000000000000, 0.000000000000000000, -3.491481338843132961E-15 ) ) ;
#381 = MANIFOLD_SOLID_BREP ( 'Corps-Déplacer/Copier1', #33 ) ;
#382 = PLANE ( 'NONE',  #237 ) ;
#383 = DIRECTION ( 'NONE',  ( -3.491481338843133355E-15, 0.000000000000000000, -1.000000000000000000 ) ) ;
#384 = CARTESIAN_POINT ( 'NONE',  ( 1.326762908760390423E-13, 0.000000000000000000, 38.00000000000000000 ) ) ;
#385 = PERSON_AND_ORGANIZATION ( #268, #35 ) ;
#386 = CARTESIAN_POINT ( 'NONE',  ( 0.1695299461620753123, 0.000000000000000000, 0.3999999999999969691 ) ) ;
#387 = AXIS2_PLACEMENT_3D ( 'NONE', #260, #348, #163 ) ;
#388 = SECURITY_CLASSIFICATION ( '', '', #280 ) ;
#389 = DIRECTION ( 'NONE',  ( 3.491481338843133355E-15, -0.000000000000000000, 1.000000000000000000 ) ) ;
#390 = ADVANCED_FACE ( 'NONE', ( #56, #115 ), #323, .T. ) ;
#391 = DIRECTION ( 'NONE',  ( 3.491481338843133355E-15, -0.000000000000000000, 1.000000000000000000 ) ) ;
#392 = PERSON_AND_ORGANIZATION_ROLE ( 'design_owner' ) ;
#393 = ADVANCED_FACE ( 'NONE', ( #228, #204 ), #179, .T. ) ;
#394 = TOROIDAL_SURFACE ( 'NONE', #1, 1.125000000000000222, 1.000000000000000000 ) ;
#395 = CONICAL_SURFACE ( 'NONE', #64, 1.499999999999995781, 0.7853981633974389531 ) ;
ENDSEC;
END-ISO-10303-21;
