ISO-10303-21;
HEADER;
FILE_DESCRIPTION (( 'STEP AP203' ),
    '1' );
FILE_NAME ('958772.step',
    '2021-11-30T09:01:44',
    ( '' ),
    ( '' ),
    'SwSTEP 2.0',
    'SolidWorks 2019',
    '' );
FILE_SCHEMA (( 'CONFIG_CONTROL_DESIGN' ));
ENDSEC;

DATA;
#1 = VERTEX_POINT ( 'NONE', #278 ) ;
#2 = DIRECTION ( 'NONE',  ( 1.000000000000000000, 0.0000000000000000000, 0.0000000000000000000 ) ) ;
#3 = CC_DESIGN_APPROVAL ( #199, ( #267 ) ) ;
#4 = AXIS2_PLACEMENT_3D ( 'NONE', #213, #194, #169 ) ;
#5 = APPROVAL_PERSON_ORGANIZATION ( #195, #199, #72 ) ;
#6 = EDGE_LOOP ( 'NONE', ( #196 ) ) ;
#7 = DATE_AND_TIME ( #125, #118 ) ;
#8 = DATE_AND_TIME ( #257, #136 ) ;
#9 = EDGE_LOOP ( 'NONE', ( #263 ) ) ;
#10 = ORIENTED_EDGE ( 'NONE', *, *, #24, .F. ) ;
#11 = DIRECTION ( 'NONE',  ( 0.0000000000000000000, 1.000000000000000000, 0.0000000000000000000 ) ) ;
#12 = FACE_OUTER_BOUND ( 'NONE', #102, .T. ) ;
#13 = ADVANCED_FACE ( 'NONE', ( #149, #30 ), #192, .T. ) ;
#14 = DIRECTION ( 'NONE',  ( 0.0000000000000000000, 1.000000000000000000, 0.0000000000000000000 ) ) ;
#15 = APPROVAL ( #262, 'UNSPECIFIED' ) ;
#16 = DIRECTION ( 'NONE',  ( -3.491481338843133355E-15, 1.224646799147353454E-16, -1.000000000000000000 ) ) ;
#17 = CYLINDRICAL_SURFACE ( 'NONE', #231, 1.499999999999998224 ) ;
#18 = TOROIDAL_SURFACE ( 'NONE', #112, 3.075000000000000622, 2.000000000000000888 ) ;
#19 = CIRCLE ( 'NONE', #143, 1.105384493975579474 ) ;
#20 = CARTESIAN_POINT ( 'NONE',  ( 3.491481338843133355E-14, 1.293499999999998762, 10.00000000000000000 ) ) ;
#21 = DIRECTION ( 'NONE',  ( 0.0000000000000000000, 1.000000000000000000, 0.0000000000000000000 ) ) ;
#22 = ADVANCED_FACE ( 'NONE', ( #284 ), #49, .F. ) ;
#23 = CARTESIAN_POINT ( 'NONE',  ( 2.129803616694311221E-13, -7.470345474798856659E-15, 61.00000000000000000 ) ) ;
#24 = EDGE_CURVE ( 'NONE', #251, #251, #135, .T. ) ;
#25 = PERSON_AND_ORGANIZATION_ROLE ( 'classification_officer' ) ;
#26 = EDGE_LOOP ( 'NONE', ( #171 ) ) ;
#27 = EDGE_LOOP ( 'NONE', ( #126 ) ) ;
#28 = PERSON_AND_ORGANIZATION ( #107, #58 ) ;
#29 = DIRECTION ( 'NONE',  ( -3.491481338843133355E-15, 1.224646799147353454E-16, -1.000000000000000000 ) ) ;
#30 = FACE_OUTER_BOUND ( 'NONE', #73, .T. ) ;
#31 = CIRCLE ( 'NONE', #69, 1.075000000000000178 ) ;
#32 = DATE_AND_TIME ( #215, #57 ) ;
#33 = AXIS2_PLACEMENT_3D ( 'NONE', #152, #89, #21 ) ;
#34 = CARTESIAN_POINT ( 'NONE',  ( 0.0000000000000000000, 0.0000000000000000000, 0.0000000000000000000 ) ) ;
#35 = DIRECTION ( 'NONE',  ( 3.491481338843133355E-15, -1.224646799147353454E-16, 1.000000000000000000 ) ) ;
#36 = DIRECTION ( 'NONE',  ( 0.0000000000000000000, 1.000000000000000000, 0.0000000000000000000 ) ) ;
#37 = AXIS2_PLACEMENT_3D ( 'NONE', #51, #145, #36 ) ;
#38 = FACE_OUTER_BOUND ( 'NONE', #27, .T. ) ;
#39 = CYLINDRICAL_SURFACE ( 'NONE', #151, 1.293499999999999428 ) ;
#40 = DIRECTION ( 'NONE',  ( -3.491481338843133355E-15, 1.224646799147353454E-16, -1.000000000000000000 ) ) ;
#41 = FACE_OUTER_BOUND ( 'NONE', #174, .T. ) ;
#42 = APPLICATION_PROTOCOL_DEFINITION ( 'international standard', 'config_control_design', 1994, #227 ) ;
#43 = EDGE_CURVE ( 'NONE', #232, #232, #176, .T. ) ;
#44 = MANIFOLD_SOLID_BREP ( 'Corps-Déplacer/Copier1[1]', #188 ) ;
#45 = CARTESIAN_POINT ( 'NONE',  ( 0.0000000000000000000, 0.0000000000000000000, 0.0000000000000000000 ) ) ;
#46 = CONICAL_SURFACE ( 'NONE', #203, 1.200000000000001510, 0.7853981633974453924 ) ;
#47 = FACE_BOUND ( 'NONE', #245, .T. ) ;
#48 = APPROVAL_STATUS ( 'not_yet_approved' ) ;
#49 = PLANE ( 'NONE',  #111 ) ;
#50 = PERSON_AND_ORGANIZATION_ROLE ( 'design_supplier' ) ;
#51 = CARTESIAN_POINT ( 'NONE',  ( 2.129803616694311221E-13, -7.470345474798856659E-15, 61.00000000000000000 ) ) ;
#52 = APPROVAL_DATE_TIME ( #7, #199 ) ;
#53 = EDGE_LOOP ( 'NONE', ( #218 ) ) ;
#54 = PERSON_AND_ORGANIZATION ( #107, #58 ) ;
#55 = CC_DESIGN_PERSON_AND_ORGANIZATION_ASSIGNMENT ( #54, #50, ( #159 ) ) ;
#56 = ORIENTED_EDGE ( 'NONE', *, *, #132, .T. ) ;
#57 = LOCAL_TIME ( 10, 1, 44.00000000000000000, #172 ) ;
#58 = ORGANIZATION ( 'UNSPECIFIED', 'UNSPECIFIED', '' ) ;
#59 = EDGE_LOOP ( 'NONE', ( #258 ) ) ;
#60 = DIRECTION ( 'NONE',  ( -4.275831445896959482E-31, -1.000000000000000000, -1.224646799147353454E-16 ) ) ;
#61 = DIRECTION ( 'NONE',  ( -3.491481338843133355E-15, 1.224646799147353454E-16, -1.000000000000000000 ) ) ;
#62 = FACE_OUTER_BOUND ( 'NONE', #212, .T. ) ;
#63 = DIRECTION ( 'NONE',  ( -3.491481338843133355E-15, 1.224646799147353454E-16, -1.000000000000000000 ) ) ;
#64 = PERSON_AND_ORGANIZATION ( #107, #58 ) ;
#65 = DIRECTION ( 'NONE',  ( 4.466787656097188572E-31, 1.000000000000000000, 1.257288951471401856E-16 ) ) ;
#66 = DIRECTION ( 'NONE',  ( 0.0000000000000000000, 1.000000000000000000, 0.0000000000000000000 ) ) ;
#67 = PERSON_AND_ORGANIZATION_ROLE ( 'design_owner' ) ;
#68 = AXIS2_PLACEMENT_3D ( 'NONE', #141, #134, #65 ) ;
#69 = AXIS2_PLACEMENT_3D ( 'NONE', #179, #16, #108 ) ;
#70 = UNCERTAINTY_MEASURE_WITH_UNIT (LENGTH_MEASURE( 1.000000000000000082E-05 ), #137, 'distance_accuracy_value', 'NONE');
#71 = ORIENTED_EDGE ( 'NONE', *, *, #43, .F. ) ;
#72 = APPROVAL_ROLE ( '' ) ;
#73 = EDGE_LOOP ( 'NONE', ( #288 ) ) ;
#74 = DATE_TIME_ROLE ( 'classification_date' ) ;
#75 = DIRECTION ( 'NONE',  ( -3.491481338843133355E-15, 1.224646799147353454E-16, -1.000000000000000000 ) ) ;
#76 = EDGE_LOOP ( 'NONE', ( #237 ) ) ;
#77 = AXIS2_PLACEMENT_3D ( 'NONE', #45, #234, #2 ) ;
#78 = DIRECTION ( 'NONE',  ( -3.491481338843133355E-15, 1.224646799147353454E-16, -1.000000000000000000 ) ) ;
#79 = CARTESIAN_POINT ( 'NONE',  ( 0.0000000000000000000, 0.0000000000000000000, 0.0000000000000000000 ) ) ;
#80 = CARTESIAN_POINT ( 'NONE',  ( 6.982962677686266711E-14, -2.602085213965210642E-15, 20.00000000000000000 ) ) ;
#81 = PLANE ( 'NONE',  #301 ) ;
#82 = AXIS2_PLACEMENT_3D ( 'NONE', #127, #78, #129 ) ;
#83 = DIRECTION ( 'NONE',  ( -3.491481338843133355E-15, 1.224646799147353454E-16, -1.000000000000000000 ) ) ;
#84 = CARTESIAN_POINT ( 'NONE',  ( -3.785471652766322713E-31, 1.149162432702594661, -1.084202172485504187E-16 ) ) ;
#85 = CARTESIAN_POINT ( 'NONE',  ( 6.982962677686266711E-14, 1.074999999999997735, 20.00000000000000000 ) ) ;
#86 = CIRCLE ( 'NONE', #37, 1.200000000000001510 ) ;
#87 = FACE_BOUND ( 'NONE', #123, .T. ) ;
#88 = CARTESIAN_POINT ( 'NONE',  ( 7.104220552055900573E-14, 1.105384493975577032, 20.34729635533384240 ) ) ;
#89 = DIRECTION ( 'NONE',  ( -3.491481338843133355E-15, 1.224646799147353454E-16, -1.000000000000000000 ) ) ;
#90 = AXIS2_PLACEMENT_3D ( 'NONE', #246, #63, #248 ) ;
#91 = CLOSED_SHELL ( 'NONE', ( #210, #280, #228, #185 ) ) ;
#92 = APPROVAL_PERSON_ORGANIZATION ( #64, #109, #144 ) ;
#93 = CALENDAR_DATE ( 2021, 30, 11 ) ;
#94 = ORIENTED_EDGE ( 'NONE', *, *, #24, .T. ) ;
#95 = CARTESIAN_POINT ( 'NONE',  ( 3.491481338843133355E-14, 9.699696394365549491E-33, 10.00000000000000000 ) ) ;
#96 = EDGE_CURVE ( 'NONE', #235, #235, #86, .T. ) ;
#97 = APPROVAL_DATE_TIME ( #281, #15 ) ;
#98 = ORIENTED_EDGE ( 'NONE', *, *, #270, .T. ) ;
#99 = CALENDAR_DATE ( 2021, 30, 11 ) ;
#100 = EDGE_LOOP ( 'NONE', ( #168 ) ) ;
#101 = APPROVAL_ROLE ( '' ) ;
#102 = EDGE_LOOP ( 'NONE', ( #71 ) ) ;
#103 = CARTESIAN_POINT ( 'NONE',  ( 7.885605607120419579E-14, -2.765898118561395173E-15, 22.58527210038943878 ) ) ;
#104 = FACE_OUTER_BOUND ( 'NONE', #6, .T. ) ;
#105 = DIRECTION ( 'NONE',  ( 0.0000000000000000000, -1.000000000000000000, 0.0000000000000000000 ) ) ;
#106 = ADVANCED_FACE ( 'NONE', ( #298, #273 ), #223, .T. ) ;
#107 = PERSON ( 'UNSPECIFIED', 'UNSPECIFIED', 'UNSPECIFIED', ('UNSPECIFIED'), ('UNSPECIFIED'), ('UNSPECIFIED') ) ;
#108 = DIRECTION ( 'NONE',  ( 0.0000000000000000000, 1.000000000000000000, 0.0000000000000000000 ) ) ;
#109 = APPROVAL ( #158, 'UNSPECIFIED' ) ;
#110 = CARTESIAN_POINT ( 'NONE',  ( -4.349548259479762696E-31, 1.525616160238097606E-32, -1.245760133697561485E-16 ) ) ;
#111 = AXIS2_PLACEMENT_3D ( 'NONE', #95, #238, #119 ) ;
#112 = AXIS2_PLACEMENT_3D ( 'NONE', #80, #130, #180 ) ;
#113 = VERTEX_POINT ( 'NONE', #84 ) ;
#114 = CARTESIAN_POINT ( 'NONE',  ( 8.728703347107827472E-16, -3.061616997868381785E-17, 0.2499999999999998335 ) ) ;
#115 = VERTEX_POINT ( 'NONE', #85 ) ;
#116 = DIRECTION ( 'NONE',  ( 4.275831445896960358E-31, 1.000000000000000000, 1.224646799147353454E-16 ) ) ;
#117 = AXIS2_PLACEMENT_3D ( 'NONE', #110, #222, #60 ) ;
#118 = LOCAL_TIME ( 10, 1, 44.00000000000000000, #191 ) ;
#119 = DIRECTION ( 'NONE',  ( -4.275831445896959482E-31, -1.000000000000000000, -1.224646799147353454E-16 ) ) ;
#120 = DATE_TIME_ROLE ( 'creation_date' ) ;
#121 = EDGE_LOOP ( 'NONE', ( #142 ) ) ;
#122 = APPROVAL_DATE_TIME ( #32, #109 ) ;
#123 = EDGE_LOOP ( 'NONE', ( #266 ) ) ;
#124 = PRODUCT_DEFINITION_SHAPE ( 'NONE', 'NONE',  #256 ) ;
#125 = CALENDAR_DATE ( 2021, 30, 11 ) ;
#126 = ORIENTED_EDGE ( 'NONE', *, *, #43, .T. ) ;
#127 = CARTESIAN_POINT ( 'NONE',  ( -8.699096518959525391E-31, 3.051232320476195211E-32, -2.491520267395122970E-16 ) ) ;
#128 = FACE_OUTER_BOUND ( 'NONE', #173, .T. ) ;
#129 = DIRECTION ( 'NONE',  ( 4.275831445896959482E-31, 1.000000000000000000, 1.224646799147353454E-16 ) ) ;
#130 = DIRECTION ( 'NONE',  ( -3.491481338843133355E-15, 1.224646799147353454E-16, -1.000000000000000000 ) ) ;
#131 = DIRECTION ( 'NONE',  ( 3.491481338843133355E-15, -1.224646799147353454E-16, 1.000000000000000000 ) ) ;
#132 = EDGE_CURVE ( 'NONE', #1, #1, #287, .T. ) ;
#133 = CC_DESIGN_APPROVAL ( #15, ( #159 ) ) ;
#134 = DIRECTION ( 'NONE',  ( -3.491481338843133355E-15, 1.224646799147353454E-16, -1.000000000000000000 ) ) ;
#135 = CIRCLE ( 'NONE', #4, 1.500000000000001332 ) ;
#136 = LOCAL_TIME ( 10, 1, 44.00000000000000000, #148 ) ;
#137 =( LENGTH_UNIT ( ) NAMED_UNIT ( * ) SI_UNIT ( .MILLI., .METRE. ) );
#138 = APPLICATION_CONTEXT ( 'configuration controlled 3d designs of mechanical parts and assemblies' ) ;
#139 = MECHANICAL_CONTEXT ( 'NONE', #227, 'mechanical' ) ;
#140 =( NAMED_UNIT ( * ) PLANE_ANGLE_UNIT ( ) SI_UNIT ( $, .RADIAN. ) );
#141 = CARTESIAN_POINT ( 'NONE',  ( 8.728703347107827472E-16, -3.061616997868381785E-17, 0.2499999999999998335 ) ) ;
#142 = ORIENTED_EDGE ( 'NONE', *, *, #154, .F. ) ;
#143 = AXIS2_PLACEMENT_3D ( 'NONE', #229, #61, #14 ) ;
#144 = APPROVAL_ROLE ( '' ) ;
#145 = DIRECTION ( 'NONE',  ( -3.491481338843133355E-15, 1.224646799147353454E-16, -1.000000000000000000 ) ) ;
#146 = PRODUCT ( '958772', '958772', '', ( #139 ) ) ;
#147 = ORIENTED_EDGE ( 'NONE', *, *, #164, .F. ) ;
#148 = COORDINATED_UNIVERSAL_TIME_OFFSET ( 1, 0, .AHEAD. ) ;
#149 = FACE_OUTER_BOUND ( 'NONE', #59, .T. ) ;
#150 = CIRCLE ( 'NONE', #33, 1.074999999999998845 ) ;
#151 = AXIS2_PLACEMENT_3D ( 'NONE', #79, #300, #226 ) ;
#152 = CARTESIAN_POINT ( 'NONE',  ( 3.623617532978461367E-14, -1.270993937079632838E-15, 10.37845310145380751 ) ) ;
#153 = DIRECTION ( 'NONE',  ( -3.491481338843133355E-15, 1.224646799147353454E-16, -1.000000000000000000 ) ) ;
#154 = EDGE_CURVE ( 'NONE', #205, #205, #19, .T. ) ;
#155 = CARTESIAN_POINT ( 'NONE',  ( 3.491481338843133355E-14, 9.699696394365549491E-33, 10.00000000000000000 ) ) ;
#156 = DIRECTION ( 'NONE',  ( 4.275831445896959482E-31, 1.000000000000000000, 1.224646799147353700E-16 ) ) ;
#157 = DIRECTION ( 'NONE',  ( -3.491481338843133355E-15, 1.224646799147353454E-16, -1.000000000000000000 ) ) ;
#158 = APPROVAL_STATUS ( 'not_yet_approved' ) ;
#159 = PRODUCT_DEFINITION_FORMATION_WITH_SPECIFIED_SOURCE ( 'ANY', '', #146, .NOT_KNOWN. ) ;
#160 = CARTESIAN_POINT ( 'NONE',  ( 8.728703347107833388E-16, 1.293499999999998762, 0.2500000000000000000 ) ) ;
#161 = CIRCLE ( 'NONE', #90, 1.293500000000000094 ) ;
#162 = CARTESIAN_POINT ( 'NONE',  ( 3.623617532978461367E-14, 1.074999999999997513, 10.37845310145380751 ) ) ;
#163 = DIRECTION ( 'NONE',  ( -4.466787656097188572E-31, -1.000000000000000000, -1.257288951471401856E-16 ) ) ;
#164 = EDGE_CURVE ( 'NONE', #113, #113, #175, .T. ) ;
#165 = APPLICATION_PROTOCOL_DEFINITION ( 'international standard', 'config_control_design', 1994, #138 ) ;
#166 = ADVANCED_FACE ( 'NONE', ( #200, #220 ), #18, .F. ) ;
#167 = PERSON_AND_ORGANIZATION ( #107, #58 ) ;
#168 = ORIENTED_EDGE ( 'NONE', *, *, #219, .F. ) ;
#169 = DIRECTION ( 'NONE',  ( 0.0000000000000000000, 1.000000000000000000, 0.0000000000000000000 ) ) ;
#170 = COORDINATED_UNIVERSAL_TIME_OFFSET ( 1, 0, .AHEAD. ) ;
#171 = ORIENTED_EDGE ( 'NONE', *, *, #240, .F. ) ;
#172 = COORDINATED_UNIVERSAL_TIME_OFFSET ( 1, 0, .AHEAD. ) ;
#173 = EDGE_LOOP ( 'NONE', ( #265 ) ) ;
#174 = EDGE_LOOP ( 'NONE', ( #10 ) ) ;
#175 = CIRCLE ( 'NONE', #82, 1.149162432702594661 ) ;
#176 = CIRCLE ( 'NONE', #224, 1.293500000000000094 ) ;
#177 = CC_DESIGN_SECURITY_CLASSIFICATION ( #267, ( #159 ) ) ;
#178 = DIRECTION ( 'NONE',  ( -3.491481338843133355E-15, 1.224646799147353454E-16, -1.000000000000000000 ) ) ;
#179 = CARTESIAN_POINT ( 'NONE',  ( 6.982962677686266711E-14, -2.449293598294706907E-15, 20.00000000000000000 ) ) ;
#180 = DIRECTION ( 'NONE',  ( 4.275831445896959482E-31, 1.000000000000000000, 1.224646799147353454E-16 ) ) ;
#181 = CARTESIAN_POINT ( 'NONE',  ( 2.129803616694311221E-13, 8.998558695971049855E-33, 61.00000000000000000 ) ) ;
#182 = CC_DESIGN_DATE_AND_TIME_ASSIGNMENT ( #8, #74, ( #267 ) ) ;
#183 = DIRECTION ( 'NONE',  ( 4.275831445896959482E-31, 1.000000000000000000, 1.224646799147353454E-16 ) ) ;
#184 = VERTEX_POINT ( 'NONE', #275 ) ;
#185 = ADVANCED_FACE ( 'NONE', ( #12 ), #247, .T. ) ;
#186 = VERTEX_POINT ( 'NONE', #162 ) ;
#187 = LOCAL_TIME ( 10, 1, 44.00000000000000000, #170 ) ;
#188 = CLOSED_SHELL ( 'NONE', ( #22, #189, #13, #166, #106, #193, #274, #259 ) ) ;
#189 = ADVANCED_FACE ( 'NONE', ( #296, #294 ), #282, .T. ) ;
#190 = AXIS2_PLACEMENT_3D ( 'NONE', #198, #131, #105 ) ;
#191 = COORDINATED_UNIVERSAL_TIME_OFFSET ( 1, 0, .AHEAD. ) ;
#192 = CYLINDRICAL_SURFACE ( 'NONE', #253, 1.074999999999999512 ) ;
#193 = ADVANCED_FACE ( 'NONE', ( #272, #62 ), #17, .T. ) ;
#194 = DIRECTION ( 'NONE',  ( -3.491481338843133355E-15, 1.224646799147353454E-16, -1.000000000000000000 ) ) ;
#195 = PERSON_AND_ORGANIZATION ( #107, #58 ) ;
#196 = ORIENTED_EDGE ( 'NONE', *, *, #297, .F. ) ;
#197 = EDGE_LOOP ( 'NONE', ( #56 ) ) ;
#198 = CARTESIAN_POINT ( 'NONE',  ( 7.885605607120419579E-14, -2.765898118561395173E-15, 22.58527210038943878 ) ) ;
#199 = APPROVAL ( #48, 'UNSPECIFIED' ) ;
#200 = FACE_OUTER_BOUND ( 'NONE', #26, .T. ) ;
#201 = AXIS2_PLACEMENT_3D ( 'NONE', #114, #207, #163 ) ;
#202 = CC_DESIGN_PERSON_AND_ORGANIZATION_ASSIGNMENT ( #289, #286, ( #256 ) ) ;
#203 = AXIS2_PLACEMENT_3D ( 'NONE', #23, #40, #66 ) ;
#204 = DIRECTION ( 'NONE',  ( 0.0000000000000000000, 1.000000000000000000, 0.0000000000000000000 ) ) ;
#205 = VERTEX_POINT ( 'NONE', #88 ) ;
#206 =( NAMED_UNIT ( * ) SI_UNIT ( $, .STERADIAN. ) SOLID_ANGLE_UNIT ( ) );
#207 = DIRECTION ( 'NONE',  ( 3.491481338843133355E-15, -1.224646799147353454E-16, 1.000000000000000000 ) ) ;
#208 = CC_DESIGN_PERSON_AND_ORGANIZATION_ASSIGNMENT ( #28, #264, ( #159 ) ) ;
#209 = VERTEX_POINT ( 'NONE', #160 ) ;
#210 = ADVANCED_FACE ( 'NONE', ( #128 ), #249, .F. ) ;
#211 =( GEOMETRIC_REPRESENTATION_CONTEXT ( 3 ) GLOBAL_UNCERTAINTY_ASSIGNED_CONTEXT ( ( #70 ) ) GLOBAL_UNIT_ASSIGNED_CONTEXT ( ( #137, #140, #206 ) ) REPRESENTATION_CONTEXT ( 'NONE', 'WORKASPACE' ) );
#212 = EDGE_LOOP ( 'NONE', ( #94 ) ) ;
#213 = CARTESIAN_POINT ( 'NONE',  ( 2.119329172677781757E-13, -7.433606070824434221E-15, 60.69999999999999574 ) ) ;
#214 = PERSON_AND_ORGANIZATION ( #107, #58 ) ;
#215 = CALENDAR_DATE ( 2021, 30, 11 ) ;
#216 = ORIENTED_EDGE ( 'NONE', *, *, #154, .T. ) ;
#217 = CIRCLE ( 'NONE', #68, 1.293499999999998762 ) ;
#218 = ORIENTED_EDGE ( 'NONE', *, *, #96, .F. ) ;
#219 = EDGE_CURVE ( 'NONE', #184, #184, #161, .T. ) ;
#220 = FACE_OUTER_BOUND ( 'NONE', #243, .T. ) ;
#221 = CC_DESIGN_DATE_AND_TIME_ASSIGNMENT ( #260, #120, ( #256 ) ) ;
#222 = DIRECTION ( 'NONE',  ( 3.491481338843133355E-15, -1.224646799147353454E-16, 1.000000000000000000 ) ) ;
#223 = CONICAL_SURFACE ( 'NONE', #190, 1.499999999999995559, 0.1745329251994265918 ) ;
#224 = AXIS2_PLACEMENT_3D ( 'NONE', #285, #29, #261 ) ;
#225 = DIRECTION ( 'NONE',  ( -4.275831445896959482E-31, -1.000000000000000000, -1.224646799147353454E-16 ) ) ;
#226 = DIRECTION ( 'NONE',  ( 4.275831445896959482E-31, 1.000000000000000000, 1.224646799147353454E-16 ) ) ;
#227 = APPLICATION_CONTEXT ( 'configuration controlled 3d designs of mechanical parts and assemblies' ) ;
#228 = ADVANCED_FACE ( 'NONE', ( #104, #38 ), #39, .T. ) ;
#229 = CARTESIAN_POINT ( 'NONE',  ( 7.104220552055900573E-14, -2.491825135286219831E-15, 20.34729635533384240 ) ) ;
#230 = APPROVAL_PERSON_ORGANIZATION ( #214, #15, #101 ) ;
#231 = AXIS2_PLACEMENT_3D ( 'NONE', #268, #153, #156 ) ;
#232 = VERTEX_POINT ( 'NONE', #20 ) ;
#233 = ADVANCED_BREP_SHAPE_REPRESENTATION ( '958772', ( #44, #250, #77 ), #211 ) ;
#234 = DIRECTION ( 'NONE',  ( 0.0000000000000000000, 0.0000000000000000000, 1.000000000000000000 ) ) ;
#235 = VERTEX_POINT ( 'NONE', #303 ) ;
#236 = DESIGN_CONTEXT ( 'detailed design', #138, 'design' ) ;
#237 = ORIENTED_EDGE ( 'NONE', *, *, #297, .T. ) ;
#238 = DIRECTION ( 'NONE',  ( 3.491481338843133355E-15, -1.224646799147353454E-16, 1.000000000000000000 ) ) ;
#239 = SECURITY_CLASSIFICATION_LEVEL ( 'unclassified' ) ;
#240 = EDGE_CURVE ( 'NONE', #115, #115, #31, .T. ) ;
#241 = EDGE_LOOP ( 'NONE', ( #292 ) ) ;
#242 = COORDINATED_UNIVERSAL_TIME_OFFSET ( 1, 0, .AHEAD. ) ;
#243 = EDGE_LOOP ( 'NONE', ( #216 ) ) ;
#244 = AXIS2_PLACEMENT_3D ( 'NONE', #155, #35, #225 ) ;
#245 = EDGE_LOOP ( 'NONE', ( #147 ) ) ;
#246 = CARTESIAN_POINT ( 'NONE',  ( 3.491481338843133355E-14, -1.224646799147353454E-15, 10.00000000000000000 ) ) ;
#247 = PLANE ( 'NONE',  #244 ) ;
#248 = DIRECTION ( 'NONE',  ( 0.0000000000000000000, 1.000000000000000000, 0.0000000000000000000 ) ) ;
#249 = PLANE ( 'NONE',  #117 ) ;
#250 = MANIFOLD_SOLID_BREP ( 'Corps-Déplacer/Copier1[2]', #91 ) ;
#251 = VERTEX_POINT ( 'NONE', #302 ) ;
#252 = LOCAL_TIME ( 10, 1, 44.00000000000000000, #242 ) ;
#253 = AXIS2_PLACEMENT_3D ( 'NONE', #34, #75, #116 ) ;
#254 = FACE_OUTER_BOUND ( 'NONE', #76, .T. ) ;
#255 = AXIS2_PLACEMENT_3D ( 'NONE', #103, #83, #11 ) ;
#256 = PRODUCT_DEFINITION ( 'UNKNOWN', '', #159, #236 ) ;
#257 = CALENDAR_DATE ( 2021, 30, 11 ) ;
#258 = ORIENTED_EDGE ( 'NONE', *, *, #270, .F. ) ;
#259 = ADVANCED_FACE ( 'NONE', ( #269 ), #81, .F. ) ;
#260 = DATE_AND_TIME ( #93, #187 ) ;
#261 = DIRECTION ( 'NONE',  ( 0.0000000000000000000, 1.000000000000000000, 0.0000000000000000000 ) ) ;
#262 = APPROVAL_STATUS ( 'not_yet_approved' ) ;
#263 = ORIENTED_EDGE ( 'NONE', *, *, #132, .F. ) ;
#264 = PERSON_AND_ORGANIZATION_ROLE ( 'creator' ) ;
#265 = ORIENTED_EDGE ( 'NONE', *, *, #164, .T. ) ;
#266 = ORIENTED_EDGE ( 'NONE', *, *, #96, .T. ) ;
#267 = SECURITY_CLASSIFICATION ( '', '', #239 ) ;
#268 = CARTESIAN_POINT ( 'NONE',  ( 0.0000000000000000000, 0.0000000000000000000, 0.0000000000000000000 ) ) ;
#269 = FACE_OUTER_BOUND ( 'NONE', #53, .T. ) ;
#270 = EDGE_CURVE ( 'NONE', #186, #186, #150, .T. ) ;
#271 = CARTESIAN_POINT ( 'NONE',  ( 3.623617532978461367E-14, -1.270993937079632838E-15, 10.37845310145380751 ) ) ;
#272 = FACE_OUTER_BOUND ( 'NONE', #9, .T. ) ;
#273 = FACE_OUTER_BOUND ( 'NONE', #197, .T. ) ;
#274 = ADVANCED_FACE ( 'NONE', ( #41, #87 ), #46, .T. ) ;
#275 = CARTESIAN_POINT ( 'NONE',  ( 3.491481338843133355E-14, 1.293499999999998762, 10.00000000000000000 ) ) ;
#276 = CC_DESIGN_APPROVAL ( #109, ( #256 ) ) ;
#277 = CC_DESIGN_PERSON_AND_ORGANIZATION_ASSIGNMENT ( #279, #67, ( #146 ) ) ;
#278 = CARTESIAN_POINT ( 'NONE',  ( 7.885605607120419579E-14, 1.499999999999992673, 22.58527210038943878 ) ) ;
#279 = PERSON_AND_ORGANIZATION ( #107, #58 ) ;
#280 = ADVANCED_FACE ( 'NONE', ( #47, #254 ), #293, .T. ) ;
#281 = DATE_AND_TIME ( #99, #252 ) ;
#282 = CONICAL_SURFACE ( 'NONE', #295, 1.074999999999998845, 0.5235987755982918213 ) ;
#283 = SHAPE_DEFINITION_REPRESENTATION ( #124, #233 ) ;
#284 = FACE_OUTER_BOUND ( 'NONE', #241, .T. ) ;
#285 = CARTESIAN_POINT ( 'NONE',  ( 3.491481338843133355E-14, -1.224646799147353454E-15, 10.00000000000000000 ) ) ;
#286 = PERSON_AND_ORGANIZATION_ROLE ( 'creator' ) ;
#287 = CIRCLE ( 'NONE', #255, 1.499999999999995559 ) ;
#288 = ORIENTED_EDGE ( 'NONE', *, *, #240, .T. ) ;
#289 = PERSON_AND_ORGANIZATION ( #107, #58 ) ;
#290 = EDGE_LOOP ( 'NONE', ( #98 ) ) ;
#291 = CC_DESIGN_PERSON_AND_ORGANIZATION_ASSIGNMENT ( #167, #25, ( #267 ) ) ;
#292 = ORIENTED_EDGE ( 'NONE', *, *, #219, .T. ) ;
#293 = CONICAL_SURFACE ( 'NONE', #201, 1.293499999999998762, 0.5235987755982918213 ) ;
#294 = FACE_BOUND ( 'NONE', #290, .T. ) ;
#295 = AXIS2_PLACEMENT_3D ( 'NONE', #271, #178, #204 ) ;
#296 = FACE_OUTER_BOUND ( 'NONE', #100, .T. ) ;
#297 = EDGE_CURVE ( 'NONE', #209, #209, #217, .T. ) ;
#298 = FACE_BOUND ( 'NONE', #121, .T. ) ;
#299 = PRODUCT_RELATED_PRODUCT_CATEGORY ( 'detail', '', ( #146 ) ) ;
#300 = DIRECTION ( 'NONE',  ( -3.491481338843133355E-15, 1.224646799147353454E-16, -1.000000000000000000 ) ) ;
#301 = AXIS2_PLACEMENT_3D ( 'NONE', #181, #157, #183 ) ;
#302 = CARTESIAN_POINT ( 'NONE',  ( 2.119329172677781757E-13, 1.499999999999994005, 60.69999999999999574 ) ) ;
#303 = CARTESIAN_POINT ( 'NONE',  ( 2.129803616694311221E-13, 1.199999999999993960, 61.00000000000000000 ) ) ;
ENDSEC;
END-ISO-10303-21;
