ISO-10303-21;
HEADER;
FILE_DESCRIPTION (( 'STEP AP203' ),
    '1' );
FILE_NAME ('958212.step',
    '2021-10-08T08:13:27',
    ( '' ),
    ( '' ),
    'SwSTEP 2.0',
    'SolidWorks 2019',
    '' );
FILE_SCHEMA (( 'CONFIG_CONTROL_DESIGN' ));
ENDSEC;

DATA;
#1 = PRODUCT_DEFINITION ( 'UNKNOWN', '', #29, #24 ) ;
#2 = CARTESIAN_POINT ( 'NONE',  ( 0.0000000000000000000, 0.0000000000000000000, 0.0000000000000000000 ) ) ;
#3 = DIRECTION ( 'NONE',  ( 0.0000000000000000000, 0.0000000000000000000, 1.000000000000000000 ) ) ;
#4 = VERTEX_POINT ( 'NONE', #104 ) ;
#5 = PERSON_AND_ORGANIZATION ( #144, #212 ) ;
#6 = AXIS2_PLACEMENT_3D ( 'NONE', #200, #51, #180 ) ;
#7 = CC_DESIGN_DATE_AND_TIME_ASSIGNMENT ( #62, #152, ( #221 ) ) ;
#8 = APPROVAL_DATE_TIME ( #175, #172 ) ;
#9 = CIRCLE ( 'NONE', #6, 0.6949999999999990630 ) ;
#10 = PERSON_AND_ORGANIZATION_ROLE ( 'design_owner' ) ;
#11 = PRODUCT_RELATED_PRODUCT_CATEGORY ( 'detail', '', ( #187 ) ) ;
#12 = CC_DESIGN_SECURITY_CLASSIFICATION ( #221, ( #29 ) ) ;
#13 = APPLICATION_PROTOCOL_DEFINITION ( 'international standard', 'config_control_design', 1994, #83 ) ;
#14 = LOCAL_TIME ( 10, 13, 27.00000000000000000, #214 ) ;
#15 = EDGE_CURVE ( 'NONE', #117, #117, #77, .T. ) ;
#16 = DIRECTION ( 'NONE',  ( -3.491481338843133355E-15, 1.224646799147353207E-16, -1.000000000000000000 ) ) ;
#17 = CARTESIAN_POINT ( 'NONE',  ( 3.910459099504309989E-14, -2.072306899813267988E-31, 11.20000000000000107 ) ) ;
#18 = FACE_BOUND ( 'NONE', #60, .T. ) ;
#19 = DIRECTION ( 'NONE',  ( 0.0000000000000000000, 1.000000000000000000, 0.0000000000000000000 ) ) ;
#20 = AXIS2_PLACEMENT_3D ( 'NONE', #199, #112, #114 ) ;
#21 = ADVANCED_BREP_SHAPE_REPRESENTATION ( '958212', ( #192, #188, #156 ), #169 ) ;
#22 = EDGE_CURVE ( 'NONE', #204, #204, #96, .T. ) ;
#23 = CC_DESIGN_PERSON_AND_ORGANIZATION_ASSIGNMENT ( #47, #136, ( #221 ) ) ;
#24 = DESIGN_CONTEXT ( 'detailed design', #83, 'design' ) ;
#25 = APPROVAL_STATUS ( 'not_yet_approved' ) ;
#26 = CALENDAR_DATE ( 2021, 8, 10 ) ;
#27 = DATE_AND_TIME ( #44, #86 ) ;
#28 = ADVANCED_FACE ( 'NONE', ( #217 ), #34, .F. ) ;
#29 = PRODUCT_DEFINITION_FORMATION_WITH_SPECIFIED_SOURCE ( 'ANY', '', #187, .NOT_KNOWN. ) ;
#30 = PLANE ( 'NONE',  #161 ) ;
#31 = DIRECTION ( 'NONE',  ( 3.491481338843133355E-15, -1.224646799147353207E-16, 1.000000000000000000 ) ) ;
#32 = PRODUCT_DEFINITION_SHAPE ( 'NONE', 'NONE',  #1 ) ;
#33 = FACE_OUTER_BOUND ( 'NONE', #179, .T. ) ;
#34 = PLANE ( 'NONE',  #197 ) ;
#35 = CARTESIAN_POINT ( 'NONE',  ( 1.047444401652940007E-13, 4.124339402320052999E-33, 30.00000000000000000 ) ) ;
#36 = CIRCLE ( 'NONE', #73, 0.6949999999999986189 ) ;
#37 = AXIS2_PLACEMENT_3D ( 'NONE', #84, #128, #219 ) ;
#38 = CARTESIAN_POINT ( 'NONE',  ( 3.943719926403360643E-14, 0.7499999999999963363, 11.29526279441628489 ) ) ;
#39 = CARTESIAN_POINT ( 'NONE',  ( 1.400986345141901858E-15, 0.6949999999999986189, 0.4012584370867937622 ) ) ;
#40 = CLOSED_SHELL ( 'NONE', ( #168, #126, #181, #202, #28 ) ) ;
#41 = APPROVAL_DATE_TIME ( #122, #164 ) ;
#42 = ORIENTED_EDGE ( 'NONE', *, *, #150, .F. ) ;
#43 = ADVANCED_FACE ( 'NONE', ( #67 ), #30, .T. ) ;
#44 = CALENDAR_DATE ( 2021, 8, 10 ) ;
#45 = ORIENTED_EDGE ( 'NONE', *, *, #46, .F. ) ;
#46 = EDGE_CURVE ( 'NONE', #105, #105, #36, .T. ) ;
#47 = PERSON_AND_ORGANIZATION ( #144, #212 ) ;
#48 = CARTESIAN_POINT ( 'NONE',  ( 3.943719926403360643E-14, -1.383270742671009225E-15, 11.29526279441628489 ) ) ;
#49 = DIRECTION ( 'NONE',  ( 3.491481338843133355E-15, -1.224646799147353207E-16, 1.000000000000000000 ) ) ;
#50 = CARTESIAN_POINT ( 'NONE',  ( 1.400986345141901463E-15, -4.913998606092114500E-17, 0.4012584370867936512 ) ) ;
#51 = DIRECTION ( 'NONE',  ( -3.491481338843133355E-15, 1.224646799147353207E-16, -1.000000000000000000 ) ) ;
#52 = CIRCLE ( 'NONE', #71, 0.6949999999999990630 ) ;
#53 = DIRECTION ( 'NONE',  ( -3.491481338843133355E-15, 1.224646799147353207E-16, -1.000000000000000000 ) ) ;
#54 = CARTESIAN_POINT ( 'NONE',  ( 3.910459099504309989E-14, 0.6949999999999977307, 11.20000000000000107 ) ) ;
#55 =( NAMED_UNIT ( * ) SI_UNIT ( $, .STERADIAN. ) SOLID_ANGLE_UNIT ( ) );
#56 = DIRECTION ( 'NONE',  ( -3.491481338843133355E-15, 1.224646799147353207E-16, -1.000000000000000000 ) ) ;
#57 = CONICAL_SURFACE ( 'NONE', #153, 0.6949999999999986189, 1.047197551196592746 ) ;
#58 = LOCAL_TIME ( 10, 13, 27.00000000000000000, #191 ) ;
#59 = CC_DESIGN_PERSON_AND_ORGANIZATION_ASSIGNMENT ( #211, #159, ( #29 ) ) ;
#60 = EDGE_LOOP ( 'NONE', ( #190 ) ) ;
#61 = APPROVAL_ROLE ( '' ) ;
#62 = DATE_AND_TIME ( #90, #58 ) ;
#63 = SECURITY_CLASSIFICATION_LEVEL ( 'unclassified' ) ;
#64 = DIRECTION ( 'NONE',  ( -3.491481338843133355E-15, 1.224646799147353207E-16, -1.000000000000000000 ) ) ;
#65 = AXIS2_PLACEMENT_3D ( 'NONE', #170, #56, #89 ) ;
#66 = CC_DESIGN_APPROVAL ( #172, ( #1 ) ) ;
#67 = FACE_OUTER_BOUND ( 'NONE', #129, .T. ) ;
#68 = ORIENTED_EDGE ( 'NONE', *, *, #15, .F. ) ;
#69 = CARTESIAN_POINT ( 'NONE',  ( 1.040461438975253740E-13, -3.649447461459112464E-15, 29.80000000000000071 ) ) ;
#70 = FACE_OUTER_BOUND ( 'NONE', #93, .T. ) ;
#71 = AXIS2_PLACEMENT_3D ( 'NONE', #113, #16, #182 ) ;
#72 = COORDINATED_UNIVERSAL_TIME_OFFSET ( 1, 0, .AHEAD. ) ;
#73 = AXIS2_PLACEMENT_3D ( 'NONE', #50, #116, #184 ) ;
#74 = APPROVAL_ROLE ( '' ) ;
#75 = EDGE_LOOP ( 'NONE', ( #213 ) ) ;
#76 = ORIENTED_EDGE ( 'NONE', *, *, #15, .T. ) ;
#77 = CIRCLE ( 'NONE', #140, 0.7499999999999977796 ) ;
#78 = COORDINATED_UNIVERSAL_TIME_OFFSET ( 1, 0, .AHEAD. ) ;
#79 = EDGE_LOOP ( 'NONE', ( #176 ) ) ;
#80 = FACE_OUTER_BOUND ( 'NONE', #209, .T. ) ;
#81 = FACE_OUTER_BOUND ( 'NONE', #139, .T. ) ;
#82 = DIRECTION ( 'NONE',  ( 4.275831445896958607E-31, 1.000000000000000000, 1.224646799147353207E-16 ) ) ;
#83 = APPLICATION_CONTEXT ( 'configuration controlled 3d designs of mechanical parts and assemblies' ) ;
#84 = CARTESIAN_POINT ( 'NONE',  ( 3.943719926403360643E-14, -1.383270742671009225E-15, 11.29526279441628489 ) ) ;
#85 = FACE_OUTER_BOUND ( 'NONE', #174, .T. ) ;
#86 = LOCAL_TIME ( 10, 13, 27.00000000000000000, #72 ) ;
#87 = APPLICATION_PROTOCOL_DEFINITION ( 'international standard', 'config_control_design', 1994, #146 ) ;
#88 = APPROVAL ( #208, 'UNSPECIFIED' ) ;
#89 = DIRECTION ( 'NONE',  ( 0.0000000000000000000, 1.000000000000000000, 0.0000000000000000000 ) ) ;
#90 = CALENDAR_DATE ( 2021, 8, 10 ) ;
#91 = EDGE_CURVE ( 'NONE', #4, #4, #52, .T. ) ;
#92 = PERSON_AND_ORGANIZATION ( #144, #212 ) ;
#93 = EDGE_LOOP ( 'NONE', ( #121 ) ) ;
#94 = COORDINATED_UNIVERSAL_TIME_OFFSET ( 1, 0, .AHEAD. ) ;
#95 = EDGE_LOOP ( 'NONE', ( #106 ) ) ;
#96 = CIRCLE ( 'NONE', #20, 0.5500000000000000444 ) ;
#97 = UNCERTAINTY_MEASURE_WITH_UNIT (LENGTH_MEASURE( 1.000000000000000082E-05 ), #223, 'distance_accuracy_value', 'NONE');
#98 = CARTESIAN_POINT ( 'NONE',  ( 3.910459099504309989E-14, -2.072306899813267988E-31, 11.20000000000000107 ) ) ;
#99 = DIRECTION ( 'NONE',  ( 4.275831445896959482E-31, 1.000000000000000000, 1.224646799147353207E-16 ) ) ;
#100 = CARTESIAN_POINT ( 'NONE',  ( 1.400986345141901463E-15, -4.913998606092114500E-17, 0.4012584370867936512 ) ) ;
#101 = DIRECTION ( 'NONE',  ( -5.542244444279826708E-31, -1.000000000000000000, -1.560003125878426828E-16 ) ) ;
#102 = AXIS2_PLACEMENT_3D ( 'NONE', #165, #215, #166 ) ;
#103 = CIRCLE ( 'NONE', #151, 0.7500000000000001110 ) ;
#104 = CARTESIAN_POINT ( 'NONE',  ( 3.910459099504309989E-14, 0.6949999999999977307, 11.20000000000000107 ) ) ;
#105 = VERTEX_POINT ( 'NONE', #39 ) ;
#106 = ORIENTED_EDGE ( 'NONE', *, *, #22, .F. ) ;
#107 = MECHANICAL_CONTEXT ( 'NONE', #146, 'mechanical' ) ;
#108 = PERSON_AND_ORGANIZATION ( #144, #212 ) ;
#109 = ORIENTED_EDGE ( 'NONE', *, *, #91, .T. ) ;
#110 = PERSON_AND_ORGANIZATION ( #144, #212 ) ;
#111 = LOCAL_TIME ( 10, 13, 27.00000000000000000, #78 ) ;
#112 = DIRECTION ( 'NONE',  ( -3.491481338843133355E-15, 1.224646799147353207E-16, -1.000000000000000000 ) ) ;
#113 = CARTESIAN_POINT ( 'NONE',  ( 3.910459099504309989E-14, -1.371604415045035710E-15, 11.20000000000000107 ) ) ;
#114 = DIRECTION ( 'NONE',  ( 0.0000000000000000000, 1.000000000000000000, 0.0000000000000000000 ) ) ;
#115 = ORIENTED_EDGE ( 'NONE', *, *, #150, .T. ) ;
#116 = DIRECTION ( 'NONE',  ( -3.491481338843133355E-15, 1.224646799147353207E-16, -1.000000000000000000 ) ) ;
#117 = VERTEX_POINT ( 'NONE', #38 ) ;
#118 = ADVANCED_FACE ( 'NONE', ( #167 ), #57, .T. ) ;
#119 = APPROVAL_PERSON_ORGANIZATION ( #171, #164, #74 ) ;
#120 = CONICAL_SURFACE ( 'NONE', #65, 0.5500000000000000444, 0.7853981633974516097 ) ;
#121 = ORIENTED_EDGE ( 'NONE', *, *, #142, .T. ) ;
#122 = DATE_AND_TIME ( #157, #185 ) ;
#123 = ADVANCED_FACE ( 'NONE', ( #33, #130 ), #143, .T. ) ;
#124 = APPROVAL_ROLE ( '' ) ;
#125 = CALENDAR_DATE ( 2021, 8, 10 ) ;
#126 = ADVANCED_FACE ( 'NONE', ( #18, #81 ), #127, .T. ) ;
#127 = CONICAL_SURFACE ( 'NONE', #37, 0.7499999999999977796, 0.5235987755983109171 ) ;
#128 = DIRECTION ( 'NONE',  ( 3.491481338843133355E-15, -1.224646799147353207E-16, 1.000000000000000000 ) ) ;
#129 = EDGE_LOOP ( 'NONE', ( #42 ) ) ;
#130 = FACE_OUTER_BOUND ( 'NONE', #160, .T. ) ;
#131 = CYLINDRICAL_SURFACE ( 'NONE', #205, 0.7499999999999988898 ) ;
#132 = CC_DESIGN_PERSON_AND_ORGANIZATION_ASSIGNMENT ( #195, #141, ( #1 ) ) ;
#133 = CARTESIAN_POINT ( 'NONE',  ( 1.047444401652940007E-13, 0.5499999999999963807, 30.00000000000000000 ) ) ;
#134 = VERTEX_POINT ( 'NONE', #54 ) ;
#135 = AXIS2_PLACEMENT_3D ( 'NONE', #17, #31, #220 ) ;
#136 = PERSON_AND_ORGANIZATION_ROLE ( 'classification_officer' ) ;
#137 = CC_DESIGN_DATE_AND_TIME_ASSIGNMENT ( #206, #154, ( #1 ) ) ;
#138 = PERSON_AND_ORGANIZATION_ROLE ( 'creator' ) ;
#139 = EDGE_LOOP ( 'NONE', ( #76 ) ) ;
#140 = AXIS2_PLACEMENT_3D ( 'NONE', #48, #64, #183 ) ;
#141 = PERSON_AND_ORGANIZATION_ROLE ( 'creator' ) ;
#142 = EDGE_CURVE ( 'NONE', #149, #149, #103, .T. ) ;
#143 = CYLINDRICAL_SURFACE ( 'NONE', #102, 0.6949999999999988409 ) ;
#144 = PERSON ( 'UNSPECIFIED', 'UNSPECIFIED', 'UNSPECIFIED', ('UNSPECIFIED'), ('UNSPECIFIED'), ('UNSPECIFIED') ) ;
#145 = FACE_BOUND ( 'NONE', #79, .T. ) ;
#146 = APPLICATION_CONTEXT ( 'configuration controlled 3d designs of mechanical parts and assemblies' ) ;
#147 = PLANE ( 'NONE',  #135 ) ;
#148 = CC_DESIGN_APPROVAL ( #164, ( #29 ) ) ;
#149 = VERTEX_POINT ( 'NONE', #203 ) ;
#150 = EDGE_CURVE ( 'NONE', #134, #134, #9, .T. ) ;
#151 = AXIS2_PLACEMENT_3D ( 'NONE', #69, #198, #19 ) ;
#152 = DATE_TIME_ROLE ( 'classification_date' ) ;
#153 = AXIS2_PLACEMENT_3D ( 'NONE', #100, #218, #101 ) ;
#154 = DATE_TIME_ROLE ( 'creation_date' ) ;
#155 = EDGE_LOOP ( 'NONE', ( #194 ) ) ;
#156 = AXIS2_PLACEMENT_3D ( 'NONE', #2, #3, #189 ) ;
#157 = CALENDAR_DATE ( 2021, 8, 10 ) ;
#158 = SHAPE_DEFINITION_REPRESENTATION ( #32, #21 ) ;
#159 = PERSON_AND_ORGANIZATION_ROLE ( 'design_supplier' ) ;
#160 = EDGE_LOOP ( 'NONE', ( #115 ) ) ;
#161 = AXIS2_PLACEMENT_3D ( 'NONE', #98, #49, #162 ) ;
#162 = DIRECTION ( 'NONE',  ( -4.275831445896958607E-31, -1.000000000000000000, -1.224646799147353207E-16 ) ) ;
#163 = FACE_OUTER_BOUND ( 'NONE', #75, .T. ) ;
#164 = APPROVAL ( #25, 'UNSPECIFIED' ) ;
#165 = CARTESIAN_POINT ( 'NONE',  ( 0.0000000000000000000, 0.0000000000000000000, 0.0000000000000000000 ) ) ;
#166 = DIRECTION ( 'NONE',  ( 4.275831445896957731E-31, 1.000000000000000000, 1.224646799147353207E-16 ) ) ;
#167 = FACE_OUTER_BOUND ( 'NONE', #155, .T. ) ;
#168 = ADVANCED_FACE ( 'NONE', ( #85 ), #147, .F. ) ;
#169 =( GEOMETRIC_REPRESENTATION_CONTEXT ( 3 ) GLOBAL_UNCERTAINTY_ASSIGNED_CONTEXT ( ( #97 ) ) GLOBAL_UNIT_ASSIGNED_CONTEXT ( ( #223, #186, #55 ) ) REPRESENTATION_CONTEXT ( 'NONE', 'WORKASPACE' ) );
#170 = CARTESIAN_POINT ( 'NONE',  ( 1.047444401652940007E-13, -3.673940397442059178E-15, 30.00000000000000000 ) ) ;
#171 = PERSON_AND_ORGANIZATION ( #144, #212 ) ;
#172 = APPROVAL ( #210, 'UNSPECIFIED' ) ;
#173 = CC_DESIGN_PERSON_AND_ORGANIZATION_ASSIGNMENT ( #110, #138, ( #29 ) ) ;
#174 = EDGE_LOOP ( 'NONE', ( #109 ) ) ;
#175 = DATE_AND_TIME ( #125, #111 ) ;
#176 = ORIENTED_EDGE ( 'NONE', *, *, #22, .T. ) ;
#177 = CLOSED_SHELL ( 'NONE', ( #118, #123, #43 ) ) ;
#178 = APPROVAL_PERSON_ORGANIZATION ( #5, #88, #124 ) ;
#179 = EDGE_LOOP ( 'NONE', ( #45 ) ) ;
#180 = DIRECTION ( 'NONE',  ( 0.0000000000000000000, 1.000000000000000000, 0.0000000000000000000 ) ) ;
#181 = ADVANCED_FACE ( 'NONE', ( #80, #70 ), #131, .T. ) ;
#182 = DIRECTION ( 'NONE',  ( 0.0000000000000000000, 1.000000000000000000, 0.0000000000000000000 ) ) ;
#183 = DIRECTION ( 'NONE',  ( 0.0000000000000000000, 1.000000000000000000, 0.0000000000000000000 ) ) ;
#184 = DIRECTION ( 'NONE',  ( 5.542244444279826708E-31, 1.000000000000000000, 1.560003125878426828E-16 ) ) ;
#185 = LOCAL_TIME ( 10, 13, 27.00000000000000000, #94 ) ;
#186 =( NAMED_UNIT ( * ) PLANE_ANGLE_UNIT ( ) SI_UNIT ( $, .RADIAN. ) );
#187 = PRODUCT ( '958212', '958212', '', ( #107 ) ) ;
#188 = MANIFOLD_SOLID_BREP ( 'Corps-Déplacer/Copier1[2]', #177 ) ;
#189 = DIRECTION ( 'NONE',  ( 1.000000000000000000, 0.0000000000000000000, 0.0000000000000000000 ) ) ;
#190 = ORIENTED_EDGE ( 'NONE', *, *, #91, .F. ) ;
#191 = COORDINATED_UNIVERSAL_TIME_OFFSET ( 1, 0, .AHEAD. ) ;
#192 = MANIFOLD_SOLID_BREP ( 'Corps-Déplacer/Copier1[1]', #40 ) ;
#193 = APPROVAL_DATE_TIME ( #27, #88 ) ;
#194 = ORIENTED_EDGE ( 'NONE', *, *, #46, .T. ) ;
#195 = PERSON_AND_ORGANIZATION ( #144, #212 ) ;
#196 = CARTESIAN_POINT ( 'NONE',  ( 0.0000000000000000000, 0.0000000000000000000, 0.0000000000000000000 ) ) ;
#197 = AXIS2_PLACEMENT_3D ( 'NONE', #35, #53, #82 ) ;
#198 = DIRECTION ( 'NONE',  ( -3.491481338843133355E-15, 1.224646799147353207E-16, -1.000000000000000000 ) ) ;
#199 = CARTESIAN_POINT ( 'NONE',  ( 1.047444401652940007E-13, -3.673940397442059178E-15, 30.00000000000000000 ) ) ;
#200 = CARTESIAN_POINT ( 'NONE',  ( 3.910459099504309989E-14, -1.371604415045035710E-15, 11.20000000000000107 ) ) ;
#201 = DIRECTION ( 'NONE',  ( -3.491481338843133355E-15, 1.224646799147353207E-16, -1.000000000000000000 ) ) ;
#202 = ADVANCED_FACE ( 'NONE', ( #163, #145 ), #120, .T. ) ;
#203 = CARTESIAN_POINT ( 'NONE',  ( 1.040461438975253740E-13, 0.7499999999999964473, 29.80000000000000071 ) ) ;
#204 = VERTEX_POINT ( 'NONE', #133 ) ;
#205 = AXIS2_PLACEMENT_3D ( 'NONE', #196, #201, #99 ) ;
#206 = DATE_AND_TIME ( #26, #14 ) ;
#207 = CC_DESIGN_APPROVAL ( #88, ( #221 ) ) ;
#208 = APPROVAL_STATUS ( 'not_yet_approved' ) ;
#209 = EDGE_LOOP ( 'NONE', ( #68 ) ) ;
#210 = APPROVAL_STATUS ( 'not_yet_approved' ) ;
#211 = PERSON_AND_ORGANIZATION ( #144, #212 ) ;
#212 = ORGANIZATION ( 'UNSPECIFIED', 'UNSPECIFIED', '' ) ;
#213 = ORIENTED_EDGE ( 'NONE', *, *, #142, .F. ) ;
#214 = COORDINATED_UNIVERSAL_TIME_OFFSET ( 1, 0, .AHEAD. ) ;
#215 = DIRECTION ( 'NONE',  ( -3.491481338843133355E-15, 1.224646799147353207E-16, -1.000000000000000000 ) ) ;
#216 = CC_DESIGN_PERSON_AND_ORGANIZATION_ASSIGNMENT ( #108, #10, ( #187 ) ) ;
#217 = FACE_OUTER_BOUND ( 'NONE', #95, .T. ) ;
#218 = DIRECTION ( 'NONE',  ( 3.491481338843133355E-15, -1.224646799147353207E-16, 1.000000000000000000 ) ) ;
#219 = DIRECTION ( 'NONE',  ( 0.0000000000000000000, -1.000000000000000000, 0.0000000000000000000 ) ) ;
#220 = DIRECTION ( 'NONE',  ( -4.275831445896958607E-31, -1.000000000000000000, -1.224646799147353207E-16 ) ) ;
#221 = SECURITY_CLASSIFICATION ( '', '', #63 ) ;
#222 = APPROVAL_PERSON_ORGANIZATION ( #92, #172, #61 ) ;
#223 =( LENGTH_UNIT ( ) NAMED_UNIT ( * ) SI_UNIT ( .MILLI., .METRE. ) );
ENDSEC;
END-ISO-10303-21;
