ISO-10303-21;
HEADER;
FILE_DESCRIPTION (( 'STEP AP203' ),
    '1' );
FILE_NAME ('958211.step',
    '2021-10-08T05:54:23',
    ( '' ),
    ( '' ),
    'SwSTEP 2.0',
    'SolidWorks 2019',
    '' );
FILE_SCHEMA (( 'CONFIG_CONTROL_DESIGN' ));
ENDSEC;

DATA;
#1 = PRODUCT_DEFINITION ( 'UNKNOWN', '', #31, #73 ) ;
#2 = CARTESIAN_POINT ( 'NONE',  ( 1.047444401652940007E-13, 4.124339402320052999E-33, 30.00000000000000000 ) ) ;
#3 = DIRECTION ( 'NONE',  ( 0.0000000000000000000, 1.000000000000000000, 0.0000000000000000000 ) ) ;
#4 = AXIS2_PLACEMENT_3D ( 'NONE', #144, #53, #19 ) ;
#5 = APPROVAL_PERSON_ORGANIZATION ( #133, #184, #26 ) ;
#6 = DIRECTION ( 'NONE',  ( 4.275831445896958607E-31, 1.000000000000000000, 1.224646799147353207E-16 ) ) ;
#7 = CARTESIAN_POINT ( 'NONE',  ( 1.400986345141901463E-15, -4.913998606092114500E-17, 0.4012584370867936512 ) ) ;
#8 = CARTESIAN_POINT ( 'NONE',  ( 3.910459099504309989E-14, 0.6949999999999977307, 11.20000000000000107 ) ) ;
#9 = CIRCLE ( 'NONE', #48, 0.6949999999999990630 ) ;
#10 = COORDINATED_UNIVERSAL_TIME_OFFSET ( 1, 0, .AHEAD. ) ;
#11 = CALENDAR_DATE ( 2021, 8, 10 ) ;
#12 = AXIS2_PLACEMENT_3D ( 'NONE', #15, #137, #206 ) ;
#13 = PERSON_AND_ORGANIZATION ( #164, #223 ) ;
#14 = DATE_AND_TIME ( #11, #23 ) ;
#15 = CARTESIAN_POINT ( 'NONE',  ( 3.910459099504309989E-14, -1.371604415045035710E-15, 11.20000000000000107 ) ) ;
#16 = EDGE_CURVE ( 'NONE', #124, #124, #77, .T. ) ;
#17 = PLANE ( 'NONE',  #30 ) ;
#18 = DIRECTION ( 'NONE',  ( 0.0000000000000000000, -1.000000000000000000, 0.0000000000000000000 ) ) ;
#19 = DIRECTION ( 'NONE',  ( -4.275831445896958607E-31, -1.000000000000000000, -1.224646799147353207E-16 ) ) ;
#20 = DIRECTION ( 'NONE',  ( -3.491481338843133355E-15, 1.224646799147353207E-16, -1.000000000000000000 ) ) ;
#21 = DIRECTION ( 'NONE',  ( -3.491481338843133355E-15, 1.224646799147353207E-16, -1.000000000000000000 ) ) ;
#22 = CALENDAR_DATE ( 2021, 8, 10 ) ;
#23 = LOCAL_TIME ( 7, 54, 23.00000000000000000, #99 ) ;
#24 = PERSON_AND_ORGANIZATION ( #164, #223 ) ;
#25 = APPROVAL_DATE_TIME ( #114, #69 ) ;
#26 = APPROVAL_ROLE ( '' ) ;
#27 = COORDINATED_UNIVERSAL_TIME_OFFSET ( 1, 0, .AHEAD. ) ;
#28 = ORIENTED_EDGE ( 'NONE', *, *, #29, .T. ) ;
#29 = EDGE_CURVE ( 'NONE', #197, #197, #186, .T. ) ;
#30 = AXIS2_PLACEMENT_3D ( 'NONE', #2, #52, #6 ) ;
#31 = PRODUCT_DEFINITION_FORMATION_WITH_SPECIFIED_SOURCE ( 'ANY', '', #51, .NOT_KNOWN. ) ;
#32 = CARTESIAN_POINT ( 'NONE',  ( 3.910459099504309989E-14, -2.072306899813267988E-31, 11.20000000000000107 ) ) ;
#33 = FACE_OUTER_BOUND ( 'NONE', #87, .T. ) ;
#34 = PRODUCT_RELATED_PRODUCT_CATEGORY ( 'detail', '', ( #51 ) ) ;
#35 = DIRECTION ( 'NONE',  ( 5.542244444279826708E-31, 1.000000000000000000, 1.560003125878426828E-16 ) ) ;
#36 = SECURITY_CLASSIFICATION ( '', '', #218 ) ;
#37 = CARTESIAN_POINT ( 'NONE',  ( 3.943719926403360643E-14, 0.7499999999999963363, 11.29526279441628489 ) ) ;
#38 = DIRECTION ( 'NONE',  ( 3.491481338843133355E-15, -1.224646799147353207E-16, 1.000000000000000000 ) ) ;
#39 =( LENGTH_UNIT ( ) NAMED_UNIT ( * ) SI_UNIT ( .MILLI., .METRE. ) );
#40 = LOCAL_TIME ( 7, 54, 23.00000000000000000, #10 ) ;
#41 =( NAMED_UNIT ( * ) SI_UNIT ( $, .STERADIAN. ) SOLID_ANGLE_UNIT ( ) );
#42 = CARTESIAN_POINT ( 'NONE',  ( 0.0000000000000000000, 0.0000000000000000000, 0.0000000000000000000 ) ) ;
#43 = CONICAL_SURFACE ( 'NONE', #161, 0.7499999999999977796, 0.5235987755983109171 ) ;
#44 = SHAPE_DEFINITION_REPRESENTATION ( #127, #58 ) ;
#45 = ADVANCED_FACE ( 'NONE', ( #178, #212 ), #91, .T. ) ;
#46 = AXIS2_PLACEMENT_3D ( 'NONE', #32, #38, #75 ) ;
#47 = LOCAL_TIME ( 7, 54, 23.00000000000000000, #27 ) ;
#48 = AXIS2_PLACEMENT_3D ( 'NONE', #143, #176, #163 ) ;
#49 = PLANE ( 'NONE',  #4 ) ;
#50 = CC_DESIGN_PERSON_AND_ORGANIZATION_ASSIGNMENT ( #13, #100, ( #31 ) ) ;
#51 = PRODUCT ( '958211', '958211', '', ( #216 ) ) ;
#52 = DIRECTION ( 'NONE',  ( -3.491481338843133355E-15, 1.224646799147353207E-16, -1.000000000000000000 ) ) ;
#53 = DIRECTION ( 'NONE',  ( 3.491481338843133355E-15, -1.224646799147353207E-16, 1.000000000000000000 ) ) ;
#54 = CARTESIAN_POINT ( 'NONE',  ( 0.0000000000000000000, 0.0000000000000000000, 0.0000000000000000000 ) ) ;
#55 = CARTESIAN_POINT ( 'NONE',  ( 1.040461438975253740E-13, 0.7499999999999964473, 29.80000000000000071 ) ) ;
#56 = APPROVAL_DATE_TIME ( #14, #184 ) ;
#57 =( NAMED_UNIT ( * ) PLANE_ANGLE_UNIT ( ) SI_UNIT ( $, .RADIAN. ) );
#58 = ADVANCED_BREP_SHAPE_REPRESENTATION ( '958211', ( #151, #153, #123 ), #98 ) ;
#59 = APPROVAL_PERSON_ORGANIZATION ( #96, #69, #148 ) ;
#60 = DATE_AND_TIME ( #22, #40 ) ;
#61 = CC_DESIGN_PERSON_AND_ORGANIZATION_ASSIGNMENT ( #182, #217, ( #1 ) ) ;
#62 = AXIS2_PLACEMENT_3D ( 'NONE', #125, #162, #195 ) ;
#63 = ORIENTED_EDGE ( 'NONE', *, *, #113, .F. ) ;
#64 = EDGE_LOOP ( 'NONE', ( #63 ) ) ;
#65 = CC_DESIGN_APPROVAL ( #69, ( #1 ) ) ;
#66 = ORIENTED_EDGE ( 'NONE', *, *, #113, .T. ) ;
#67 = EDGE_LOOP ( 'NONE', ( #117 ) ) ;
#68 = VERTEX_POINT ( 'NONE', #8 ) ;
#69 = APPROVAL ( #169, 'UNSPECIFIED' ) ;
#70 = CIRCLE ( 'NONE', #62, 0.7500000000000001110 ) ;
#71 = FACE_OUTER_BOUND ( 'NONE', #189, .T. ) ;
#72 = CARTESIAN_POINT ( 'NONE',  ( 1.047444401652940007E-13, -3.673940397442059178E-15, 30.00000000000000000 ) ) ;
#73 = DESIGN_CONTEXT ( 'detailed design', #128, 'design' ) ;
#74 = EDGE_CURVE ( 'NONE', #68, #68, #9, .T. ) ;
#75 = DIRECTION ( 'NONE',  ( -4.275831445896958607E-31, -1.000000000000000000, -1.224646799147353207E-16 ) ) ;
#76 = VERTEX_POINT ( 'NONE', #55 ) ;
#77 = CIRCLE ( 'NONE', #221, 0.7499999999999977796 ) ;
#78 = CLOSED_SHELL ( 'NONE', ( #165, #45, #203 ) ) ;
#79 = LOCAL_TIME ( 7, 54, 23.00000000000000000, #204 ) ;
#80 = APPLICATION_PROTOCOL_DEFINITION ( 'international standard', 'config_control_design', 1994, #115 ) ;
#81 = COORDINATED_UNIVERSAL_TIME_OFFSET ( 1, 0, .AHEAD. ) ;
#82 = APPROVAL ( #131, 'UNSPECIFIED' ) ;
#83 = AXIS2_PLACEMENT_3D ( 'NONE', #108, #130, #214 ) ;
#84 = PERSON_AND_ORGANIZATION ( #164, #223 ) ;
#85 = PERSON_AND_ORGANIZATION_ROLE ( 'design_owner' ) ;
#86 = EDGE_LOOP ( 'NONE', ( #157 ) ) ;
#87 = EDGE_LOOP ( 'NONE', ( #154 ) ) ;
#88 = ORIENTED_EDGE ( 'NONE', *, *, #29, .F. ) ;
#89 = VERTEX_POINT ( 'NONE', #193 ) ;
#90 = ADVANCED_FACE ( 'NONE', ( #211, #196 ), #159, .T. ) ;
#91 = CYLINDRICAL_SURFACE ( 'NONE', #139, 0.6949999999999988409 ) ;
#92 = FACE_BOUND ( 'NONE', #67, .T. ) ;
#93 = LOCAL_TIME ( 7, 54, 23.00000000000000000, #81 ) ;
#94 = FACE_OUTER_BOUND ( 'NONE', #101, .T. ) ;
#95 = DIRECTION ( 'NONE',  ( 0.0000000000000000000, 1.000000000000000000, 0.0000000000000000000 ) ) ;
#96 = PERSON_AND_ORGANIZATION ( #164, #223 ) ;
#97 = AXIS2_PLACEMENT_3D ( 'NONE', #72, #146, #3 ) ;
#98 =( GEOMETRIC_REPRESENTATION_CONTEXT ( 3 ) GLOBAL_UNCERTAINTY_ASSIGNED_CONTEXT ( ( #190 ) ) GLOBAL_UNIT_ASSIGNED_CONTEXT ( ( #39, #57, #41 ) ) REPRESENTATION_CONTEXT ( 'NONE', 'WORKASPACE' ) );
#99 = COORDINATED_UNIVERSAL_TIME_OFFSET ( 1, 0, .AHEAD. ) ;
#100 = PERSON_AND_ORGANIZATION_ROLE ( 'creator' ) ;
#101 = EDGE_LOOP ( 'NONE', ( #210 ) ) ;
#102 = ADVANCED_FACE ( 'NONE', ( #71 ), #17, .F. ) ;
#103 = CALENDAR_DATE ( 2021, 8, 10 ) ;
#104 = AXIS2_PLACEMENT_3D ( 'NONE', #126, #20, #95 ) ;
#105 = CC_DESIGN_PERSON_AND_ORGANIZATION_ASSIGNMENT ( #183, #167, ( #36 ) ) ;
#106 = CC_DESIGN_APPROVAL ( #82, ( #36 ) ) ;
#107 = DIRECTION ( 'NONE',  ( 4.275831445896959482E-31, 1.000000000000000000, 1.224646799147353207E-16 ) ) ;
#108 = CARTESIAN_POINT ( 'NONE',  ( 1.400986345141901463E-15, -4.913998606092114500E-17, 0.4012584370867936512 ) ) ;
#109 = CONICAL_SURFACE ( 'NONE', #104, 0.5500000000000000444, 0.7853981633974516097 ) ;
#110 = FACE_OUTER_BOUND ( 'NONE', #64, .T. ) ;
#111 = CARTESIAN_POINT ( 'NONE',  ( 3.910459099504309989E-14, 0.6949999999999977307, 11.20000000000000107 ) ) ;
#112 = DATE_AND_TIME ( #150, #47 ) ;
#113 = EDGE_CURVE ( 'NONE', #76, #76, #70, .T. ) ;
#114 = DATE_AND_TIME ( #134, #79 ) ;
#115 = APPLICATION_CONTEXT ( 'configuration controlled 3d designs of mechanical parts and assemblies' ) ;
#116 = CC_DESIGN_DATE_AND_TIME_ASSIGNMENT ( #112, #147, ( #36 ) ) ;
#117 = ORIENTED_EDGE ( 'NONE', *, *, #156, .T. ) ;
#118 = CIRCLE ( 'NONE', #97, 0.5500000000000000444 ) ;
#119 = APPROVAL_PERSON_ORGANIZATION ( #215, #82, #198 ) ;
#120 = EDGE_LOOP ( 'NONE', ( #172 ) ) ;
#121 = ORIENTED_EDGE ( 'NONE', *, *, #152, .F. ) ;
#122 = CC_DESIGN_PERSON_AND_ORGANIZATION_ASSIGNMENT ( #24, #85, ( #51 ) ) ;
#123 = AXIS2_PLACEMENT_3D ( 'NONE', #42, #135, #220 ) ;
#124 = VERTEX_POINT ( 'NONE', #37 ) ;
#125 = CARTESIAN_POINT ( 'NONE',  ( 1.040461438975253740E-13, -3.649447461459112464E-15, 29.80000000000000071 ) ) ;
#126 = CARTESIAN_POINT ( 'NONE',  ( 1.047444401652940007E-13, -3.673940397442059178E-15, 30.00000000000000000 ) ) ;
#127 = PRODUCT_DEFINITION_SHAPE ( 'NONE', 'NONE',  #1 ) ;
#128 = APPLICATION_CONTEXT ( 'configuration controlled 3d designs of mechanical parts and assemblies' ) ;
#129 = DIRECTION ( 'NONE',  ( 3.491481338843133355E-15, -1.224646799147353207E-16, 1.000000000000000000 ) ) ;
#130 = DIRECTION ( 'NONE',  ( 3.491481338843133355E-15, -1.224646799147353207E-16, 1.000000000000000000 ) ) ;
#131 = APPROVAL_STATUS ( 'not_yet_approved' ) ;
#132 = APPLICATION_PROTOCOL_DEFINITION ( 'international standard', 'config_control_design', 1994, #128 ) ;
#133 = PERSON_AND_ORGANIZATION ( #164, #223 ) ;
#134 = CALENDAR_DATE ( 2021, 8, 10 ) ;
#135 = DIRECTION ( 'NONE',  ( 0.0000000000000000000, 0.0000000000000000000, 1.000000000000000000 ) ) ;
#136 = CC_DESIGN_DATE_AND_TIME_ASSIGNMENT ( #60, #202, ( #1 ) ) ;
#137 = DIRECTION ( 'NONE',  ( -3.491481338843133355E-15, 1.224646799147353207E-16, -1.000000000000000000 ) ) ;
#138 = EDGE_LOOP ( 'NONE', ( #222 ) ) ;
#139 = AXIS2_PLACEMENT_3D ( 'NONE', #160, #181, #179 ) ;
#140 = EDGE_LOOP ( 'NONE', ( #88 ) ) ;
#141 = CARTESIAN_POINT ( 'NONE',  ( 3.943719926403360643E-14, -1.383270742671009225E-15, 11.29526279441628489 ) ) ;
#142 = CARTESIAN_POINT ( 'NONE',  ( 3.943719926403360643E-14, -1.383270742671009225E-15, 11.29526279441628489 ) ) ;
#143 = CARTESIAN_POINT ( 'NONE',  ( 3.910459099504309989E-14, -1.371604415045035710E-15, 11.20000000000000107 ) ) ;
#144 = CARTESIAN_POINT ( 'NONE',  ( 3.910459099504309989E-14, -2.072306899813267988E-31, 11.20000000000000107 ) ) ;
#145 = FACE_BOUND ( 'NONE', #140, .T. ) ;
#146 = DIRECTION ( 'NONE',  ( -3.491481338843133355E-15, 1.224646799147353207E-16, -1.000000000000000000 ) ) ;
#147 = DATE_TIME_ROLE ( 'classification_date' ) ;
#148 = APPROVAL_ROLE ( '' ) ;
#149 = PERSON_AND_ORGANIZATION_ROLE ( 'design_supplier' ) ;
#150 = CALENDAR_DATE ( 2021, 8, 10 ) ;
#151 = MANIFOLD_SOLID_BREP ( 'Corps-Déplacer/Copier1[1]', #175 ) ;
#152 = EDGE_CURVE ( 'NONE', #89, #89, #208, .T. ) ;
#153 = MANIFOLD_SOLID_BREP ( 'Corps-Déplacer/Copier1[2]', #78 ) ;
#154 = ORIENTED_EDGE ( 'NONE', *, *, #152, .T. ) ;
#155 = EDGE_LOOP ( 'NONE', ( #28 ) ) ;
#156 = EDGE_CURVE ( 'NONE', #171, #171, #118, .T. ) ;
#157 = ORIENTED_EDGE ( 'NONE', *, *, #16, .T. ) ;
#158 = DIRECTION ( 'NONE',  ( 0.0000000000000000000, 1.000000000000000000, 0.0000000000000000000 ) ) ;
#159 = CYLINDRICAL_SURFACE ( 'NONE', #170, 0.7499999999999988898 ) ;
#160 = CARTESIAN_POINT ( 'NONE',  ( 0.0000000000000000000, 0.0000000000000000000, 0.0000000000000000000 ) ) ;
#161 = AXIS2_PLACEMENT_3D ( 'NONE', #142, #129, #18 ) ;
#162 = DIRECTION ( 'NONE',  ( -3.491481338843133355E-15, 1.224646799147353207E-16, -1.000000000000000000 ) ) ;
#163 = DIRECTION ( 'NONE',  ( 0.0000000000000000000, 1.000000000000000000, 0.0000000000000000000 ) ) ;
#164 = PERSON ( 'UNSPECIFIED', 'UNSPECIFIED', 'UNSPECIFIED', ('UNSPECIFIED'), ('UNSPECIFIED'), ('UNSPECIFIED') ) ;
#165 = ADVANCED_FACE ( 'NONE', ( #33 ), #199, .T. ) ;
#166 = PLANE ( 'NONE',  #46 ) ;
#167 = PERSON_AND_ORGANIZATION_ROLE ( 'classification_officer' ) ;
#168 = CARTESIAN_POINT ( 'NONE',  ( 1.047444401652940007E-13, 0.5499999999999963807, 30.00000000000000000 ) ) ;
#169 = APPROVAL_STATUS ( 'not_yet_approved' ) ;
#170 = AXIS2_PLACEMENT_3D ( 'NONE', #54, #194, #107 ) ;
#171 = VERTEX_POINT ( 'NONE', #168 ) ;
#172 = ORIENTED_EDGE ( 'NONE', *, *, #16, .F. ) ;
#173 = DATE_AND_TIME ( #103, #93 ) ;
#174 = DIRECTION ( 'NONE',  ( -3.491481338843133355E-15, 1.224646799147353207E-16, -1.000000000000000000 ) ) ;
#175 = CLOSED_SHELL ( 'NONE', ( #180, #219, #90, #192, #102 ) ) ;
#176 = DIRECTION ( 'NONE',  ( -3.491481338843133355E-15, 1.224646799147353207E-16, -1.000000000000000000 ) ) ;
#177 = FACE_OUTER_BOUND ( 'NONE', #155, .T. ) ;
#178 = FACE_OUTER_BOUND ( 'NONE', #188, .T. ) ;
#179 = DIRECTION ( 'NONE',  ( 4.275831445896957731E-31, 1.000000000000000000, 1.224646799147353207E-16 ) ) ;
#180 = ADVANCED_FACE ( 'NONE', ( #177 ), #49, .F. ) ;
#181 = DIRECTION ( 'NONE',  ( -3.491481338843133355E-15, 1.224646799147353207E-16, -1.000000000000000000 ) ) ;
#182 = PERSON_AND_ORGANIZATION ( #164, #223 ) ;
#183 = PERSON_AND_ORGANIZATION ( #164, #223 ) ;
#184 = APPROVAL ( #201, 'UNSPECIFIED' ) ;
#185 = ORIENTED_EDGE ( 'NONE', *, *, #156, .F. ) ;
#186 = CIRCLE ( 'NONE', #12, 0.6949999999999990630 ) ;
#187 = CC_DESIGN_SECURITY_CLASSIFICATION ( #36, ( #31 ) ) ;
#188 = EDGE_LOOP ( 'NONE', ( #121 ) ) ;
#189 = EDGE_LOOP ( 'NONE', ( #185 ) ) ;
#190 = UNCERTAINTY_MEASURE_WITH_UNIT (LENGTH_MEASURE( 1.000000000000000082E-05 ), #39, 'distance_accuracy_value', 'NONE');
#191 = AXIS2_PLACEMENT_3D ( 'NONE', #7, #21, #35 ) ;
#192 = ADVANCED_FACE ( 'NONE', ( #110, #92 ), #109, .T. ) ;
#193 = CARTESIAN_POINT ( 'NONE',  ( 1.400986345141901858E-15, 0.6949999999999986189, 0.4012584370867937622 ) ) ;
#194 = DIRECTION ( 'NONE',  ( -3.491481338843133355E-15, 1.224646799147353207E-16, -1.000000000000000000 ) ) ;
#195 = DIRECTION ( 'NONE',  ( 0.0000000000000000000, 1.000000000000000000, 0.0000000000000000000 ) ) ;
#196 = FACE_OUTER_BOUND ( 'NONE', #207, .T. ) ;
#197 = VERTEX_POINT ( 'NONE', #111 ) ;
#198 = APPROVAL_ROLE ( '' ) ;
#199 = CONICAL_SURFACE ( 'NONE', #83, 0.6949999999999986189, 1.047197551196592746 ) ;
#200 = CC_DESIGN_PERSON_AND_ORGANIZATION_ASSIGNMENT ( #84, #149, ( #31 ) ) ;
#201 = APPROVAL_STATUS ( 'not_yet_approved' ) ;
#202 = DATE_TIME_ROLE ( 'creation_date' ) ;
#203 = ADVANCED_FACE ( 'NONE', ( #94 ), #166, .T. ) ;
#204 = COORDINATED_UNIVERSAL_TIME_OFFSET ( 1, 0, .AHEAD. ) ;
#205 = CC_DESIGN_APPROVAL ( #184, ( #31 ) ) ;
#206 = DIRECTION ( 'NONE',  ( 0.0000000000000000000, 1.000000000000000000, 0.0000000000000000000 ) ) ;
#207 = EDGE_LOOP ( 'NONE', ( #66 ) ) ;
#208 = CIRCLE ( 'NONE', #191, 0.6949999999999986189 ) ;
#209 = APPROVAL_DATE_TIME ( #173, #82 ) ;
#210 = ORIENTED_EDGE ( 'NONE', *, *, #74, .F. ) ;
#211 = FACE_OUTER_BOUND ( 'NONE', #120, .T. ) ;
#212 = FACE_OUTER_BOUND ( 'NONE', #138, .T. ) ;
#213 = FACE_OUTER_BOUND ( 'NONE', #86, .T. ) ;
#214 = DIRECTION ( 'NONE',  ( -5.542244444279826708E-31, -1.000000000000000000, -1.560003125878426828E-16 ) ) ;
#215 = PERSON_AND_ORGANIZATION ( #164, #223 ) ;
#216 = MECHANICAL_CONTEXT ( 'NONE', #115, 'mechanical' ) ;
#217 = PERSON_AND_ORGANIZATION_ROLE ( 'creator' ) ;
#218 = SECURITY_CLASSIFICATION_LEVEL ( 'unclassified' ) ;
#219 = ADVANCED_FACE ( 'NONE', ( #145, #213 ), #43, .T. ) ;
#220 = DIRECTION ( 'NONE',  ( 1.000000000000000000, 0.0000000000000000000, 0.0000000000000000000 ) ) ;
#221 = AXIS2_PLACEMENT_3D ( 'NONE', #141, #174, #158 ) ;
#222 = ORIENTED_EDGE ( 'NONE', *, *, #74, .T. ) ;
#223 = ORGANIZATION ( 'UNSPECIFIED', 'UNSPECIFIED', '' ) ;
ENDSEC;
END-ISO-10303-21;
