ISO-10303-21;
HEADER;
FILE_DESCRIPTION (( 'STEP AP203' ),
    '1' );
FILE_NAME ('958209.step',
    '2021-10-08T08:13:26',
    ( '' ),
    ( '' ),
    'SwSTEP 2.0',
    'SolidWorks 2019',
    '' );
FILE_SCHEMA (( 'CONFIG_CONTROL_DESIGN' ));
ENDSEC;

DATA;
#1 = ADVANCED_FACE ( 'NONE', ( #109, #158 ), #59, .T. ) ;
#2 = UNCERTAINTY_MEASURE_WITH_UNIT (LENGTH_MEASURE( 1.000000000000000082E-05 ), #162, 'distance_accuracy_value', 'NONE');
#3 =( NAMED_UNIT ( * ) PLANE_ANGLE_UNIT ( ) SI_UNIT ( $, .RADIAN. ) );
#4 = PERSON_AND_ORGANIZATION ( #81, #7 ) ;
#5 = CC_DESIGN_PERSON_AND_ORGANIZATION_ASSIGNMENT ( #120, #136, ( #166 ) ) ;
#6 = APPROVAL_DATE_TIME ( #168, #22 ) ;
#7 = ORGANIZATION ( 'UNSPECIFIED', 'UNSPECIFIED', '' ) ;
#8 = DATE_AND_TIME ( #167, #70 ) ;
#9 = ORIENTED_EDGE ( 'NONE', *, *, #148, .T. ) ;
#10 = PERSON_AND_ORGANIZATION ( #81, #7 ) ;
#11 = ORIENTED_EDGE ( 'NONE', *, *, #218, .F. ) ;
#12 = CALENDAR_DATE ( 2021, 8, 10 ) ;
#13 = CONICAL_SURFACE ( 'NONE', #96, 0.6899999999999985034, 1.047197551196592746 ) ;
#14 = EDGE_LOOP ( 'NONE', ( #214 ) ) ;
#15 = CC_DESIGN_PERSON_AND_ORGANIZATION_ASSIGNMENT ( #25, #69, ( #140 ) ) ;
#16 = CARTESIAN_POINT ( 'NONE',  ( 3.946743637939637517E-14, -1.384331317909734072E-15, 11.30392304845413065 ) ) ;
#17 = DIRECTION ( 'NONE',  ( -3.491481338843133355E-15, 1.224646799147353207E-16, -1.000000000000000000 ) ) ;
#18 = DIRECTION ( 'NONE',  ( 5.582405635905043440E-31, 1.000000000000000000, 1.571307496355806900E-16 ) ) ;
#19 = CARTESIAN_POINT ( 'NONE',  ( 3.910459099504309358E-14, 0.6899999999999979483, 11.19999999999999929 ) ) ;
#20 = VERTEX_POINT ( 'NONE', #80 ) ;
#21 = MECHANICAL_CONTEXT ( 'NONE', #212, 'mechanical' ) ;
#22 = APPROVAL ( #72, 'UNSPECIFIED' ) ;
#23 = CARTESIAN_POINT ( 'NONE',  ( 1.040461438975253740E-13, 0.7499999999999963363, 29.80000000000000071 ) ) ;
#24 = AXIS2_PLACEMENT_3D ( 'NONE', #16, #217, #111 ) ;
#25 = PERSON_AND_ORGANIZATION ( #81, #7 ) ;
#26 = EDGE_LOOP ( 'NONE', ( #31 ) ) ;
#27 = EDGE_LOOP ( 'NONE', ( #86 ) ) ;
#28 = CALENDAR_DATE ( 2021, 8, 10 ) ;
#29 = ORIENTED_EDGE ( 'NONE', *, *, #91, .F. ) ;
#30 = APPROVAL_ROLE ( '' ) ;
#31 = ORIENTED_EDGE ( 'NONE', *, *, #161, .T. ) ;
#32 = AXIS2_PLACEMENT_3D ( 'NONE', #126, #176, #115 ) ;
#33 = ADVANCED_FACE ( 'NONE', ( #173 ), #128, .F. ) ;
#34 = AXIS2_PLACEMENT_3D ( 'NONE', #223, #117, #182 ) ;
#35 = EDGE_LOOP ( 'NONE', ( #200 ) ) ;
#36 = DIRECTION ( 'NONE',  ( -3.491481338843133355E-15, 1.224646799147353207E-16, -1.000000000000000000 ) ) ;
#37 = DIRECTION ( 'NONE',  ( 3.491481338843133355E-15, -1.224646799147353207E-16, 1.000000000000000000 ) ) ;
#38 = DIRECTION ( 'NONE',  ( 0.0000000000000000000, 1.000000000000000000, 0.0000000000000000000 ) ) ;
#39 = DESIGN_CONTEXT ( 'detailed design', #93, 'design' ) ;
#40 = DIRECTION ( 'NONE',  ( 3.491481338843133355E-15, -1.224646799147353207E-16, 1.000000000000000000 ) ) ;
#41 = LOCAL_TIME ( 10, 13, 26.00000000000000000, #188 ) ;
#42 = ADVANCED_FACE ( 'NONE', ( #155 ), #201, .T. ) ;
#43 = LOCAL_TIME ( 10, 13, 26.00000000000000000, #187 ) ;
#44 =( NAMED_UNIT ( * ) SI_UNIT ( $, .STERADIAN. ) SOLID_ANGLE_UNIT ( ) );
#45 = AXIS2_PLACEMENT_3D ( 'NONE', #89, #90, #192 ) ;
#46 = COORDINATED_UNIVERSAL_TIME_OFFSET ( 1, 0, .AHEAD. ) ;
#47 = ADVANCED_FACE ( 'NONE', ( #55, #194 ), #205, .T. ) ;
#48 = ADVANCED_BREP_SHAPE_REPRESENTATION ( '958209', ( #56, #58, #34 ), #153 ) ;
#49 = DATE_AND_TIME ( #103, #202 ) ;
#50 = EDGE_LOOP ( 'NONE', ( #123 ) ) ;
#51 = EDGE_LOOP ( 'NONE', ( #110 ) ) ;
#52 = EDGE_CURVE ( 'NONE', #177, #177, #83, .T. ) ;
#53 = AXIS2_PLACEMENT_3D ( 'NONE', #131, #37, #113 ) ;
#54 = CLOSED_SHELL ( 'NONE', ( #193, #47, #42 ) ) ;
#55 = FACE_OUTER_BOUND ( 'NONE', #189, .T. ) ;
#56 = MANIFOLD_SOLID_BREP ( 'Corps-Déplacer/Copier1[1]', #160 ) ;
#57 = DIRECTION ( 'NONE',  ( 3.491481338843133355E-15, -1.224646799147353207E-16, 1.000000000000000000 ) ) ;
#58 = MANIFOLD_SOLID_BREP ( 'Corps-Déplacer/Copier1[2]', #54 ) ;
#59 = CYLINDRICAL_SURFACE ( 'NONE', #45, 0.7499999999999988898 ) ;
#60 = FACE_BOUND ( 'NONE', #107, .T. ) ;
#61 = CARTESIAN_POINT ( 'NONE',  ( 1.047444401652940007E-13, 4.124339402320052999E-33, 30.00000000000000000 ) ) ;
#62 = PERSON_AND_ORGANIZATION_ROLE ( 'design_owner' ) ;
#63 = VERTEX_POINT ( 'NONE', #197 ) ;
#64 = LOCAL_TIME ( 10, 13, 26.00000000000000000, #46 ) ;
#65 = CC_DESIGN_APPROVAL ( #204, ( #87 ) ) ;
#66 = SECURITY_CLASSIFICATION_LEVEL ( 'unclassified' ) ;
#67 = ORIENTED_EDGE ( 'NONE', *, *, #218, .T. ) ;
#68 = CC_DESIGN_DATE_AND_TIME_ASSIGNMENT ( #49, #164, ( #166 ) ) ;
#69 = PERSON_AND_ORGANIZATION_ROLE ( 'creator' ) ;
#70 = LOCAL_TIME ( 10, 13, 26.00000000000000000, #199 ) ;
#71 = APPROVAL_STATUS ( 'not_yet_approved' ) ;
#72 = APPROVAL_STATUS ( 'not_yet_approved' ) ;
#73 = DIRECTION ( 'NONE',  ( -3.491481338843133355E-15, 1.224646799147353207E-16, -1.000000000000000000 ) ) ;
#74 = CIRCLE ( 'NONE', #24, 0.7499999999999977796 ) ;
#75 = FACE_OUTER_BOUND ( 'NONE', #50, .T. ) ;
#76 = CARTESIAN_POINT ( 'NONE',  ( 3.910459099504309358E-14, 5.174171250183382883E-33, 11.19999999999999929 ) ) ;
#77 = DIRECTION ( 'NONE',  ( 4.275831445896958607E-31, 1.000000000000000000, 1.224646799147353207E-16 ) ) ;
#78 = CARTESIAN_POINT ( 'NONE',  ( 1.390907306687643313E-15, -4.878646098134617340E-17, 0.3983716857408455270 ) ) ;
#79 = CC_DESIGN_SECURITY_CLASSIFICATION ( #166, ( #87 ) ) ;
#80 = CARTESIAN_POINT ( 'NONE',  ( 1.047444401652940007E-13, 0.5499999999999963807, 30.00000000000000000 ) ) ;
#81 = PERSON ( 'UNSPECIFIED', 'UNSPECIFIED', 'UNSPECIFIED', ('UNSPECIFIED'), ('UNSPECIFIED'), ('UNSPECIFIED') ) ;
#82 = PERSON_AND_ORGANIZATION ( #81, #7 ) ;
#83 = CIRCLE ( 'NONE', #32, 0.6899999999999992806 ) ;
#84 = APPROVAL_PERSON_ORGANIZATION ( #10, #204, #85 ) ;
#85 = APPROVAL_ROLE ( '' ) ;
#86 = ORIENTED_EDGE ( 'NONE', *, *, #139, .T. ) ;
#87 = PRODUCT_DEFINITION_FORMATION_WITH_SPECIFIED_SOURCE ( 'ANY', '', #100, .NOT_KNOWN. ) ;
#88 = APPROVAL_DATE_TIME ( #8, #204 ) ;
#89 = CARTESIAN_POINT ( 'NONE',  ( 0.0000000000000000000, 0.0000000000000000000, 0.0000000000000000000 ) ) ;
#90 = DIRECTION ( 'NONE',  ( -3.491481338843133355E-15, 1.224646799147353207E-16, -1.000000000000000000 ) ) ;
#91 = EDGE_CURVE ( 'NONE', #95, #95, #211, .T. ) ;
#92 = DIRECTION ( 'NONE',  ( 0.0000000000000000000, 1.000000000000000000, 0.0000000000000000000 ) ) ;
#93 = APPLICATION_CONTEXT ( 'configuration controlled 3d designs of mechanical parts and assemblies' ) ;
#94 = FACE_BOUND ( 'NONE', #14, .T. ) ;
#95 = VERTEX_POINT ( 'NONE', #98 ) ;
#96 = AXIS2_PLACEMENT_3D ( 'NONE', #78, #57, #143 ) ;
#97 = APPROVAL_PERSON_ORGANIZATION ( #137, #102, #30 ) ;
#98 = CARTESIAN_POINT ( 'NONE',  ( 1.390907306687643707E-15, 0.6899999999999985034, 0.3983716857408456380 ) ) ;
#99 = PRODUCT_RELATED_PRODUCT_CATEGORY ( 'detail', '', ( #100 ) ) ;
#100 = PRODUCT ( '958209', '958209', '', ( #21 ) ) ;
#101 = DATE_AND_TIME ( #12, #64 ) ;
#102 = APPROVAL ( #213, 'UNSPECIFIED' ) ;
#103 = CALENDAR_DATE ( 2021, 8, 10 ) ;
#104 = EDGE_LOOP ( 'NONE', ( #11 ) ) ;
#105 = CC_DESIGN_APPROVAL ( #22, ( #166 ) ) ;
#106 = DATE_AND_TIME ( #169, #41 ) ;
#107 = EDGE_LOOP ( 'NONE', ( #67 ) ) ;
#108 = APPLICATION_PROTOCOL_DEFINITION ( 'international standard', 'config_control_design', 1994, #93 ) ;
#109 = FACE_OUTER_BOUND ( 'NONE', #51, .T. ) ;
#110 = ORIENTED_EDGE ( 'NONE', *, *, #148, .F. ) ;
#111 = DIRECTION ( 'NONE',  ( 0.0000000000000000000, 1.000000000000000000, 0.0000000000000000000 ) ) ;
#112 = DIRECTION ( 'NONE',  ( 0.0000000000000000000, 1.000000000000000000, 0.0000000000000000000 ) ) ;
#113 = DIRECTION ( 'NONE',  ( -4.275831445896958607E-31, -1.000000000000000000, -1.224646799147353207E-16 ) ) ;
#114 = CARTESIAN_POINT ( 'NONE',  ( 1.390907306687643313E-15, -4.878646098134617340E-17, 0.3983716857408455270 ) ) ;
#115 = DIRECTION ( 'NONE',  ( 0.0000000000000000000, 1.000000000000000000, 0.0000000000000000000 ) ) ;
#116 = AXIS2_PLACEMENT_3D ( 'NONE', #220, #144, #77 ) ;
#117 = DIRECTION ( 'NONE',  ( 0.0000000000000000000, 0.0000000000000000000, 1.000000000000000000 ) ) ;
#118 = CONICAL_SURFACE ( 'NONE', #150, 0.5500000000000000444, 0.7853981633974512766 ) ;
#119 = CARTESIAN_POINT ( 'NONE',  ( 3.946743637939637517E-14, 0.7499999999999963363, 11.30392304845413065 ) ) ;
#120 = PERSON_AND_ORGANIZATION ( #81, #7 ) ;
#121 = DATE_TIME_ROLE ( 'creation_date' ) ;
#122 = PERSON_AND_ORGANIZATION_ROLE ( 'design_supplier' ) ;
#123 = ORIENTED_EDGE ( 'NONE', *, *, #91, .T. ) ;
#124 = EDGE_LOOP ( 'NONE', ( #152 ) ) ;
#125 = AXIS2_PLACEMENT_3D ( 'NONE', #219, #73, #145 ) ;
#126 = CARTESIAN_POINT ( 'NONE',  ( 3.910459099504309358E-14, -1.371604415045035513E-15, 11.19999999999999929 ) ) ;
#127 = DIRECTION ( 'NONE',  ( -3.491481338843133355E-15, 1.224646799147353207E-16, -1.000000000000000000 ) ) ;
#128 = PLANE ( 'NONE',  #53 ) ;
#129 = CONICAL_SURFACE ( 'NONE', #159, 0.7499999999999977796, 0.5235987755982978165 ) ;
#130 = DIRECTION ( 'NONE',  ( -3.491481338843133355E-15, 1.224646799147353207E-16, -1.000000000000000000 ) ) ;
#131 = CARTESIAN_POINT ( 'NONE',  ( 3.910459099504309358E-14, 5.174171250183382883E-33, 11.19999999999999929 ) ) ;
#132 = VERTEX_POINT ( 'NONE', #23 ) ;
#133 = ADVANCED_FACE ( 'NONE', ( #94, #196 ), #129, .T. ) ;
#134 = AXIS2_PLACEMENT_3D ( 'NONE', #76, #40, #156 ) ;
#135 = VERTEX_POINT ( 'NONE', #119 ) ;
#136 = PERSON_AND_ORGANIZATION_ROLE ( 'classification_officer' ) ;
#137 = PERSON_AND_ORGANIZATION ( #81, #7 ) ;
#138 = COORDINATED_UNIVERSAL_TIME_OFFSET ( 1, 0, .AHEAD. ) ;
#139 = EDGE_CURVE ( 'NONE', #63, #63, #181, .T. ) ;
#140 = PRODUCT_DEFINITION ( 'UNKNOWN', '', #87, #39 ) ;
#141 = AXIS2_PLACEMENT_3D ( 'NONE', #114, #127, #18 ) ;
#142 = APPROVAL_PERSON_ORGANIZATION ( #198, #22, #184 ) ;
#143 = DIRECTION ( 'NONE',  ( -5.582405635905043440E-31, -1.000000000000000000, -1.571307496355806900E-16 ) ) ;
#144 = DIRECTION ( 'NONE',  ( -3.491481338843133355E-15, 1.224646799147353207E-16, -1.000000000000000000 ) ) ;
#145 = DIRECTION ( 'NONE',  ( 0.0000000000000000000, 1.000000000000000000, 0.0000000000000000000 ) ) ;
#146 = AXIS2_PLACEMENT_3D ( 'NONE', #61, #195, #203 ) ;
#147 = PLANE ( 'NONE',  #146 ) ;
#148 = EDGE_CURVE ( 'NONE', #135, #135, #74, .T. ) ;
#149 = SHAPE_DEFINITION_REPRESENTATION ( #183, #48 ) ;
#150 = AXIS2_PLACEMENT_3D ( 'NONE', #222, #36, #112 ) ;
#151 = ADVANCED_FACE ( 'NONE', ( #191, #60 ), #118, .T. ) ;
#152 = ORIENTED_EDGE ( 'NONE', *, *, #52, .F. ) ;
#153 =( GEOMETRIC_REPRESENTATION_CONTEXT ( 3 ) GLOBAL_UNCERTAINTY_ASSIGNED_CONTEXT ( ( #2 ) ) GLOBAL_UNIT_ASSIGNED_CONTEXT ( ( #162, #3, #44 ) ) REPRESENTATION_CONTEXT ( 'NONE', 'WORKASPACE' ) );
#154 = PERSON_AND_ORGANIZATION_ROLE ( 'creator' ) ;
#155 = FACE_OUTER_BOUND ( 'NONE', #124, .T. ) ;
#156 = DIRECTION ( 'NONE',  ( -4.275831445896958607E-31, -1.000000000000000000, -1.224646799147353207E-16 ) ) ;
#157 = CARTESIAN_POINT ( 'NONE',  ( 3.946743637939637517E-14, -1.384331317909734072E-15, 11.30392304845413065 ) ) ;
#158 = FACE_OUTER_BOUND ( 'NONE', #26, .T. ) ;
#159 = AXIS2_PLACEMENT_3D ( 'NONE', #157, #178, #221 ) ;
#160 = CLOSED_SHELL ( 'NONE', ( #33, #133, #1, #151, #208 ) ) ;
#161 = EDGE_CURVE ( 'NONE', #132, #132, #190, .T. ) ;
#162 =( LENGTH_UNIT ( ) NAMED_UNIT ( * ) SI_UNIT ( .MILLI., .METRE. ) );
#163 = APPLICATION_PROTOCOL_DEFINITION ( 'international standard', 'config_control_design', 1994, #212 ) ;
#164 = DATE_TIME_ROLE ( 'classification_date' ) ;
#165 = CC_DESIGN_APPROVAL ( #102, ( #140 ) ) ;
#166 = SECURITY_CLASSIFICATION ( '', '', #66 ) ;
#167 = CALENDAR_DATE ( 2021, 8, 10 ) ;
#168 = DATE_AND_TIME ( #28, #43 ) ;
#169 = CALENDAR_DATE ( 2021, 8, 10 ) ;
#170 = EDGE_LOOP ( 'NONE', ( #172 ) ) ;
#171 = CIRCLE ( 'NONE', #210, 0.5500000000000000444 ) ;
#172 = ORIENTED_EDGE ( 'NONE', *, *, #52, .T. ) ;
#173 = FACE_OUTER_BOUND ( 'NONE', #27, .T. ) ;
#174 = FACE_OUTER_BOUND ( 'NONE', #104, .T. ) ;
#175 = CC_DESIGN_PERSON_AND_ORGANIZATION_ASSIGNMENT ( #4, #122, ( #87 ) ) ;
#176 = DIRECTION ( 'NONE',  ( -3.491481338843133355E-15, 1.224646799147353207E-16, -1.000000000000000000 ) ) ;
#177 = VERTEX_POINT ( 'NONE', #19 ) ;
#178 = DIRECTION ( 'NONE',  ( 3.491481338843133355E-15, -1.224646799147353207E-16, 1.000000000000000000 ) ) ;
#179 = CC_DESIGN_PERSON_AND_ORGANIZATION_ASSIGNMENT ( #209, #62, ( #100 ) ) ;
#180 = AXIS2_PLACEMENT_3D ( 'NONE', #206, #130, #92 ) ;
#181 = CIRCLE ( 'NONE', #125, 0.6899999999999992806 ) ;
#182 = DIRECTION ( 'NONE',  ( 1.000000000000000000, 0.0000000000000000000, 0.0000000000000000000 ) ) ;
#183 = PRODUCT_DEFINITION_SHAPE ( 'NONE', 'NONE',  #140 ) ;
#184 = APPROVAL_ROLE ( '' ) ;
#185 = CC_DESIGN_DATE_AND_TIME_ASSIGNMENT ( #101, #121, ( #140 ) ) ;
#186 = CC_DESIGN_PERSON_AND_ORGANIZATION_ASSIGNMENT ( #82, #154, ( #87 ) ) ;
#187 = COORDINATED_UNIVERSAL_TIME_OFFSET ( 1, 0, .AHEAD. ) ;
#188 = COORDINATED_UNIVERSAL_TIME_OFFSET ( 1, 0, .AHEAD. ) ;
#189 = EDGE_LOOP ( 'NONE', ( #29 ) ) ;
#190 = CIRCLE ( 'NONE', #180, 0.7500000000000000000 ) ;
#191 = FACE_OUTER_BOUND ( 'NONE', #35, .T. ) ;
#192 = DIRECTION ( 'NONE',  ( 4.275831445896959482E-31, 1.000000000000000000, 1.224646799147353207E-16 ) ) ;
#193 = ADVANCED_FACE ( 'NONE', ( #75 ), #13, .T. ) ;
#194 = FACE_OUTER_BOUND ( 'NONE', #170, .T. ) ;
#195 = DIRECTION ( 'NONE',  ( -3.491481338843133355E-15, 1.224646799147353207E-16, -1.000000000000000000 ) ) ;
#196 = FACE_OUTER_BOUND ( 'NONE', #215, .T. ) ;
#197 = CARTESIAN_POINT ( 'NONE',  ( 3.910459099504309358E-14, 0.6899999999999979483, 11.19999999999999929 ) ) ;
#198 = PERSON_AND_ORGANIZATION ( #81, #7 ) ;
#199 = COORDINATED_UNIVERSAL_TIME_OFFSET ( 1, 0, .AHEAD. ) ;
#200 = ORIENTED_EDGE ( 'NONE', *, *, #161, .F. ) ;
#201 = PLANE ( 'NONE',  #134 ) ;
#202 = LOCAL_TIME ( 10, 13, 26.00000000000000000, #138 ) ;
#203 = DIRECTION ( 'NONE',  ( 4.275831445896958607E-31, 1.000000000000000000, 1.224646799147353207E-16 ) ) ;
#204 = APPROVAL ( #71, 'UNSPECIFIED' ) ;
#205 = CYLINDRICAL_SURFACE ( 'NONE', #116, 0.6899999999999989475 ) ;
#206 = CARTESIAN_POINT ( 'NONE',  ( 1.040461438975253740E-13, -3.649447461459112464E-15, 29.80000000000000071 ) ) ;
#207 = CARTESIAN_POINT ( 'NONE',  ( 1.047444401652940007E-13, -3.673940397442059178E-15, 30.00000000000000000 ) ) ;
#208 = ADVANCED_FACE ( 'NONE', ( #174 ), #147, .F. ) ;
#209 = PERSON_AND_ORGANIZATION ( #81, #7 ) ;
#210 = AXIS2_PLACEMENT_3D ( 'NONE', #207, #17, #38 ) ;
#211 = CIRCLE ( 'NONE', #141, 0.6899999999999985034 ) ;
#212 = APPLICATION_CONTEXT ( 'configuration controlled 3d designs of mechanical parts and assemblies' ) ;
#213 = APPROVAL_STATUS ( 'not_yet_approved' ) ;
#214 = ORIENTED_EDGE ( 'NONE', *, *, #139, .F. ) ;
#215 = EDGE_LOOP ( 'NONE', ( #9 ) ) ;
#216 = APPROVAL_DATE_TIME ( #106, #102 ) ;
#217 = DIRECTION ( 'NONE',  ( -3.491481338843133355E-15, 1.224646799147353207E-16, -1.000000000000000000 ) ) ;
#218 = EDGE_CURVE ( 'NONE', #20, #20, #171, .T. ) ;
#219 = CARTESIAN_POINT ( 'NONE',  ( 3.910459099504309358E-14, -1.371604415045035513E-15, 11.19999999999999929 ) ) ;
#220 = CARTESIAN_POINT ( 'NONE',  ( 0.0000000000000000000, 0.0000000000000000000, 0.0000000000000000000 ) ) ;
#221 = DIRECTION ( 'NONE',  ( 0.0000000000000000000, -1.000000000000000000, 0.0000000000000000000 ) ) ;
#222 = CARTESIAN_POINT ( 'NONE',  ( 1.047444401652940007E-13, -3.673940397442059178E-15, 30.00000000000000000 ) ) ;
#223 = CARTESIAN_POINT ( 'NONE',  ( 0.0000000000000000000, 0.0000000000000000000, 0.0000000000000000000 ) ) ;
ENDSEC;
END-ISO-10303-21;
