ISO-10303-21;
HEADER;
FILE_DESCRIPTION (( 'STEP AP203' ),
    '1' );
FILE_NAME ('958208.step',
    '2021-10-08T05:54:23',
    ( '' ),
    ( '' ),
    'SwSTEP 2.0',
    'SolidWorks 2019',
    '' );
FILE_SCHEMA (( 'CONFIG_CONTROL_DESIGN' ));
ENDSEC;

DATA;
#1 = FACE_OUTER_BOUND ( 'NONE', #152, .T. ) ;
#2 = EDGE_CURVE ( 'NONE', #37, #37, #62, .T. ) ;
#3 =( NAMED_UNIT ( * ) SI_UNIT ( $, .STERADIAN. ) SOLID_ANGLE_UNIT ( ) );
#4 = CC_DESIGN_APPROVAL ( #51, ( #172 ) ) ;
#5 = CALENDAR_DATE ( 2021, 8, 10 ) ;
#6 = CC_DESIGN_DATE_AND_TIME_ASSIGNMENT ( #22, #155, ( #222 ) ) ;
#7 =( LENGTH_UNIT ( ) NAMED_UNIT ( * ) SI_UNIT ( .MILLI., .METRE. ) );
#8 = LOCAL_TIME ( 7, 54, 23.00000000000000000, #24 ) ;
#9 = APPROVAL_DATE_TIME ( #68, #51 ) ;
#10 = ORIENTED_EDGE ( 'NONE', *, *, #177, .T. ) ;
#11 = ORIENTED_EDGE ( 'NONE', *, *, #177, .F. ) ;
#12 = ADVANCED_FACE ( 'NONE', ( #1, #71 ), #164, .T. ) ;
#13 = LOCAL_TIME ( 7, 54, 23.00000000000000000, #161 ) ;
#14 = DIRECTION ( 'NONE',  ( -4.275831445896958607E-31, -1.000000000000000000, -1.224646799147353207E-16 ) ) ;
#15 = FACE_OUTER_BOUND ( 'NONE', #54, .T. ) ;
#16 = DIRECTION ( 'NONE',  ( -3.491481338843133355E-15, 1.224646799147353207E-16, -1.000000000000000000 ) ) ;
#17 = PRODUCT_DEFINITION_FORMATION_WITH_SPECIFIED_SOURCE ( 'ANY', '', #45, .NOT_KNOWN. ) ;
#18 = CARTESIAN_POINT ( 'NONE',  ( 1.040461438975253740E-13, 0.7499999999999964473, 29.80000000000000071 ) ) ;
#19 = PERSON_AND_ORGANIZATION ( #162, #125 ) ;
#20 = AXIS2_PLACEMENT_3D ( 'NONE', #202, #89, #55 ) ;
#21 = APPLICATION_PROTOCOL_DEFINITION ( 'international standard', 'config_control_design', 1994, #182 ) ;
#22 = DATE_AND_TIME ( #42, #31 ) ;
#23 = AXIS2_PLACEMENT_3D ( 'NONE', #119, #220, #36 ) ;
#24 = COORDINATED_UNIVERSAL_TIME_OFFSET ( 1, 0, .AHEAD. ) ;
#25 = ORIENTED_EDGE ( 'NONE', *, *, #2, .F. ) ;
#26 = EDGE_LOOP ( 'NONE', ( #148 ) ) ;
#27 = CLOSED_SHELL ( 'NONE', ( #96, #128, #213 ) ) ;
#28 = APPROVAL ( #80, 'UNSPECIFIED' ) ;
#29 = CARTESIAN_POINT ( 'NONE',  ( 3.910459099504309358E-14, -1.371604415045035513E-15, 11.19999999999999929 ) ) ;
#30 = AXIS2_PLACEMENT_3D ( 'NONE', #56, #105, #135 ) ;
#31 = LOCAL_TIME ( 7, 54, 23.00000000000000000, #127 ) ;
#32 = EDGE_CURVE ( 'NONE', #190, #190, #210, .T. ) ;
#33 = CARTESIAN_POINT ( 'NONE',  ( 0.0000000000000000000, 0.0000000000000000000, 0.0000000000000000000 ) ) ;
#34 = CARTESIAN_POINT ( 'NONE',  ( 1.047444401652940007E-13, -3.673940397442059178E-15, 30.00000000000000000 ) ) ;
#35 = CARTESIAN_POINT ( 'NONE',  ( 3.946743637939637517E-14, -1.384331317909734072E-15, 11.30392304845413065 ) ) ;
#36 = DIRECTION ( 'NONE',  ( 0.0000000000000000000, 1.000000000000000000, 0.0000000000000000000 ) ) ;
#37 = VERTEX_POINT ( 'NONE', #98 ) ;
#38 = APPROVAL_ROLE ( '' ) ;
#39 = ADVANCED_FACE ( 'NONE', ( #69, #15 ), #157, .T. ) ;
#40 = DESIGN_CONTEXT ( 'detailed design', #57, 'design' ) ;
#41 = DATE_AND_TIME ( #5, #13 ) ;
#42 = CALENDAR_DATE ( 2021, 8, 10 ) ;
#43 = CC_DESIGN_PERSON_AND_ORGANIZATION_ASSIGNMENT ( #215, #196, ( #17 ) ) ;
#44 = PERSON_AND_ORGANIZATION ( #162, #125 ) ;
#45 = PRODUCT ( '958208', '958208', '', ( #109 ) ) ;
#46 = EDGE_LOOP ( 'NONE', ( #200 ) ) ;
#47 = SECURITY_CLASSIFICATION_LEVEL ( 'unclassified' ) ;
#48 = CIRCLE ( 'NONE', #63, 0.7500000000000001110 ) ;
#49 = DATE_TIME_ROLE ( 'classification_date' ) ;
#50 = CARTESIAN_POINT ( 'NONE',  ( 0.0000000000000000000, 0.0000000000000000000, 0.0000000000000000000 ) ) ;
#51 = APPROVAL ( #144, 'UNSPECIFIED' ) ;
#52 = MANIFOLD_SOLID_BREP ( 'Corps-Déplacer/Copier1[2]', #27 ) ;
#53 = DIRECTION ( 'NONE',  ( 3.491481338843133355E-15, -1.224646799147353207E-16, 1.000000000000000000 ) ) ;
#54 = EDGE_LOOP ( 'NONE', ( #180 ) ) ;
#55 = DIRECTION ( 'NONE',  ( 5.582405635905043440E-31, 1.000000000000000000, 1.571307496355806900E-16 ) ) ;
#56 = CARTESIAN_POINT ( 'NONE',  ( 1.047444401652940007E-13, 4.124339402320052999E-33, 30.00000000000000000 ) ) ;
#57 = APPLICATION_CONTEXT ( 'configuration controlled 3d designs of mechanical parts and assemblies' ) ;
#58 = EDGE_CURVE ( 'NONE', #174, #174, #77, .T. ) ;
#59 = AXIS2_PLACEMENT_3D ( 'NONE', #33, #219, #133 ) ;
#60 = CARTESIAN_POINT ( 'NONE',  ( 3.910459099504309358E-14, 5.174171250183382883E-33, 11.19999999999999929 ) ) ;
#61 = VERTEX_POINT ( 'NONE', #143 ) ;
#62 = CIRCLE ( 'NONE', #83, 0.6899999999999992806 ) ;
#63 = AXIS2_PLACEMENT_3D ( 'NONE', #107, #208, #126 ) ;
#64 = UNCERTAINTY_MEASURE_WITH_UNIT (LENGTH_MEASURE( 1.000000000000000082E-05 ), #7, 'distance_accuracy_value', 'NONE');
#65 = COORDINATED_UNIVERSAL_TIME_OFFSET ( 1, 0, .AHEAD. ) ;
#66 = ADVANCED_BREP_SHAPE_REPRESENTATION ( '958208', ( #124, #52, #92 ), #142 ) ;
#67 = DATE_AND_TIME ( #111, #8 ) ;
#68 = DATE_AND_TIME ( #214, #79 ) ;
#69 = FACE_BOUND ( 'NONE', #82, .T. ) ;
#70 = CYLINDRICAL_SURFACE ( 'NONE', #205, 0.7499999999999988898 ) ;
#71 = FACE_BOUND ( 'NONE', #189, .T. ) ;
#72 = CIRCLE ( 'NONE', #179, 0.7499999999999977796 ) ;
#73 = FACE_OUTER_BOUND ( 'NONE', #100, .T. ) ;
#74 = PLANE ( 'NONE',  #30 ) ;
#75 = PERSON_AND_ORGANIZATION ( #162, #125 ) ;
#76 = PERSON_AND_ORGANIZATION ( #162, #125 ) ;
#77 = CIRCLE ( 'NONE', #132, 0.6899999999999992806 ) ;
#78 = APPLICATION_PROTOCOL_DEFINITION ( 'international standard', 'config_control_design', 1994, #57 ) ;
#79 = LOCAL_TIME ( 7, 54, 23.00000000000000000, #65 ) ;
#80 = APPROVAL_STATUS ( 'not_yet_approved' ) ;
#81 = PERSON_AND_ORGANIZATION ( #162, #125 ) ;
#82 = EDGE_LOOP ( 'NONE', ( #221 ) ) ;
#83 = AXIS2_PLACEMENT_3D ( 'NONE', #29, #93, #137 ) ;
#84 = APPROVAL_ROLE ( '' ) ;
#85 = PERSON_AND_ORGANIZATION_ROLE ( 'classification_officer' ) ;
#86 = ADVANCED_FACE ( 'NONE', ( #171 ), #74, .F. ) ;
#87 = ORIENTED_EDGE ( 'NONE', *, *, #2, .T. ) ;
#88 = CARTESIAN_POINT ( 'NONE',  ( 1.390907306687643313E-15, -4.878646098134617340E-17, 0.3983716857408455270 ) ) ;
#89 = DIRECTION ( 'NONE',  ( -3.491481338843133355E-15, 1.224646799147353207E-16, -1.000000000000000000 ) ) ;
#90 = PRODUCT_DEFINITION_SHAPE ( 'NONE', 'NONE',  #222 ) ;
#91 = CARTESIAN_POINT ( 'NONE',  ( 3.910459099504309358E-14, 5.174171250183382883E-33, 11.19999999999999929 ) ) ;
#92 = AXIS2_PLACEMENT_3D ( 'NONE', #175, #140, #207 ) ;
#93 = DIRECTION ( 'NONE',  ( -3.491481338843133355E-15, 1.224646799147353207E-16, -1.000000000000000000 ) ) ;
#94 = CARTESIAN_POINT ( 'NONE',  ( 3.946743637939637517E-14, -1.384331317909734072E-15, 11.30392304845413065 ) ) ;
#95 = VERTEX_POINT ( 'NONE', #18 ) ;
#96 = ADVANCED_FACE ( 'NONE', ( #73 ), #192, .T. ) ;
#97 = PERSON_AND_ORGANIZATION_ROLE ( 'design_owner' ) ;
#98 = CARTESIAN_POINT ( 'NONE',  ( 3.910459099504309358E-14, 0.6899999999999979483, 11.19999999999999929 ) ) ;
#99 = CC_DESIGN_SECURITY_CLASSIFICATION ( #172, ( #17 ) ) ;
#100 = EDGE_LOOP ( 'NONE', ( #10 ) ) ;
#101 = EDGE_LOOP ( 'NONE', ( #25 ) ) ;
#102 = DIRECTION ( 'NONE',  ( 3.491481338843133355E-15, -1.224646799147353207E-16, 1.000000000000000000 ) ) ;
#103 = FACE_OUTER_BOUND ( 'NONE', #46, .T. ) ;
#104 = DIRECTION ( 'NONE',  ( -3.491481338843133355E-15, 1.224646799147353207E-16, -1.000000000000000000 ) ) ;
#105 = DIRECTION ( 'NONE',  ( -3.491481338843133355E-15, 1.224646799147353207E-16, -1.000000000000000000 ) ) ;
#106 = VERTEX_POINT ( 'NONE', #193 ) ;
#107 = CARTESIAN_POINT ( 'NONE',  ( 1.040461438975253740E-13, -3.649447461459112464E-15, 29.80000000000000071 ) ) ;
#108 = APPROVAL ( #141, 'UNSPECIFIED' ) ;
#109 = MECHANICAL_CONTEXT ( 'NONE', #182, 'mechanical' ) ;
#110 = APPROVAL_PERSON_ORGANIZATION ( #159, #108, #38 ) ;
#111 = CALENDAR_DATE ( 2021, 8, 10 ) ;
#112 = ORIENTED_EDGE ( 'NONE', *, *, #206, .T. ) ;
#113 = PERSON_AND_ORGANIZATION_ROLE ( 'design_supplier' ) ;
#114 = AXIS2_PLACEMENT_3D ( 'NONE', #91, #201, #14 ) ;
#115 = FACE_OUTER_BOUND ( 'NONE', #223, .T. ) ;
#116 = CARTESIAN_POINT ( 'NONE',  ( 3.910459099504309358E-14, -1.371604415045035513E-15, 11.19999999999999929 ) ) ;
#117 = AXIS2_PLACEMENT_3D ( 'NONE', #94, #102, #187 ) ;
#118 = CC_DESIGN_PERSON_AND_ORGANIZATION_ASSIGNMENT ( #19, #97, ( #45 ) ) ;
#119 = CARTESIAN_POINT ( 'NONE',  ( 1.047444401652940007E-13, -3.673940397442059178E-15, 30.00000000000000000 ) ) ;
#120 = ADVANCED_FACE ( 'NONE', ( #199, #203 ), #70, .T. ) ;
#121 = AXIS2_PLACEMENT_3D ( 'NONE', #60, #176, #122 ) ;
#122 = DIRECTION ( 'NONE',  ( -4.275831445896958607E-31, -1.000000000000000000, -1.224646799147353207E-16 ) ) ;
#123 = AXIS2_PLACEMENT_3D ( 'NONE', #88, #53, #138 ) ;
#124 = MANIFOLD_SOLID_BREP ( 'Corps-Déplacer/Copier1[1]', #129 ) ;
#125 = ORGANIZATION ( 'UNSPECIFIED', 'UNSPECIFIED', '' ) ;
#126 = DIRECTION ( 'NONE',  ( 0.0000000000000000000, 1.000000000000000000, 0.0000000000000000000 ) ) ;
#127 = COORDINATED_UNIVERSAL_TIME_OFFSET ( 1, 0, .AHEAD. ) ;
#128 = ADVANCED_FACE ( 'NONE', ( #151, #115 ), #170, .T. ) ;
#129 = CLOSED_SHELL ( 'NONE', ( #160, #39, #120, #12, #86 ) ) ;
#130 = DATE_AND_TIME ( #195, #168 ) ;
#131 = SHAPE_DEFINITION_REPRESENTATION ( #90, #66 ) ;
#132 = AXIS2_PLACEMENT_3D ( 'NONE', #116, #167, #149 ) ;
#133 = DIRECTION ( 'NONE',  ( 4.275831445896958607E-31, 1.000000000000000000, 1.224646799147353207E-16 ) ) ;
#134 = DIRECTION ( 'NONE',  ( -3.491481338843133355E-15, 1.224646799147353207E-16, -1.000000000000000000 ) ) ;
#135 = DIRECTION ( 'NONE',  ( 4.275831445896958607E-31, 1.000000000000000000, 1.224646799147353207E-16 ) ) ;
#136 = APPROVAL_PERSON_ORGANIZATION ( #75, #28, #84 ) ;
#137 = DIRECTION ( 'NONE',  ( 0.0000000000000000000, 1.000000000000000000, 0.0000000000000000000 ) ) ;
#138 = DIRECTION ( 'NONE',  ( -5.582405635905043440E-31, -1.000000000000000000, -1.571307496355806900E-16 ) ) ;
#139 = PLANE ( 'NONE',  #121 ) ;
#140 = DIRECTION ( 'NONE',  ( 0.0000000000000000000, 0.0000000000000000000, 1.000000000000000000 ) ) ;
#141 = APPROVAL_STATUS ( 'not_yet_approved' ) ;
#142 =( GEOMETRIC_REPRESENTATION_CONTEXT ( 3 ) GLOBAL_UNCERTAINTY_ASSIGNED_CONTEXT ( ( #64 ) ) GLOBAL_UNIT_ASSIGNED_CONTEXT ( ( #7, #156, #3 ) ) REPRESENTATION_CONTEXT ( 'NONE', 'WORKASPACE' ) );
#143 = CARTESIAN_POINT ( 'NONE',  ( 1.390907306687643707E-15, 0.6899999999999985034, 0.3983716857408456380 ) ) ;
#144 = APPROVAL_STATUS ( 'not_yet_approved' ) ;
#145 = APPROVAL_DATE_TIME ( #130, #28 ) ;
#146 = CC_DESIGN_APPROVAL ( #28, ( #17 ) ) ;
#147 = EDGE_LOOP ( 'NONE', ( #11 ) ) ;
#148 = ORIENTED_EDGE ( 'NONE', *, *, #197, .F. ) ;
#149 = DIRECTION ( 'NONE',  ( 0.0000000000000000000, 1.000000000000000000, 0.0000000000000000000 ) ) ;
#150 = CC_DESIGN_PERSON_AND_ORGANIZATION_ASSIGNMENT ( #44, #85, ( #172 ) ) ;
#151 = FACE_OUTER_BOUND ( 'NONE', #147, .T. ) ;
#152 = EDGE_LOOP ( 'NONE', ( #184 ) ) ;
#153 = APPROVAL_PERSON_ORGANIZATION ( #198, #51, #217 ) ;
#154 = ORIENTED_EDGE ( 'NONE', *, *, #32, .T. ) ;
#155 = DATE_TIME_ROLE ( 'creation_date' ) ;
#156 =( NAMED_UNIT ( * ) PLANE_ANGLE_UNIT ( ) SI_UNIT ( $, .RADIAN. ) );
#157 = CONICAL_SURFACE ( 'NONE', #117, 0.7499999999999977796, 0.5235987755982978165 ) ;
#158 = CIRCLE ( 'NONE', #20, 0.6899999999999985034 ) ;
#159 = PERSON_AND_ORGANIZATION ( #162, #125 ) ;
#160 = ADVANCED_FACE ( 'NONE', ( #103 ), #169, .F. ) ;
#161 = COORDINATED_UNIVERSAL_TIME_OFFSET ( 1, 0, .AHEAD. ) ;
#162 = PERSON ( 'UNSPECIFIED', 'UNSPECIFIED', 'UNSPECIFIED', ('UNSPECIFIED'), ('UNSPECIFIED'), ('UNSPECIFIED') ) ;
#163 = APPROVAL_DATE_TIME ( #41, #108 ) ;
#164 = CONICAL_SURFACE ( 'NONE', #23, 0.5500000000000000444, 0.7853981633974516097 ) ;
#165 = EDGE_LOOP ( 'NONE', ( #186 ) ) ;
#166 = AXIS2_PLACEMENT_3D ( 'NONE', #34, #134, #173 ) ;
#167 = DIRECTION ( 'NONE',  ( -3.491481338843133355E-15, 1.224646799147353207E-16, -1.000000000000000000 ) ) ;
#168 = LOCAL_TIME ( 7, 54, 23.00000000000000000, #216 ) ;
#169 = PLANE ( 'NONE',  #114 ) ;
#170 = CYLINDRICAL_SURFACE ( 'NONE', #59, 0.6899999999999989475 ) ;
#171 = FACE_OUTER_BOUND ( 'NONE', #165, .T. ) ;
#172 = SECURITY_CLASSIFICATION ( '', '', #47 ) ;
#173 = DIRECTION ( 'NONE',  ( 0.0000000000000000000, 1.000000000000000000, 0.0000000000000000000 ) ) ;
#174 = VERTEX_POINT ( 'NONE', #191 ) ;
#175 = CARTESIAN_POINT ( 'NONE',  ( 0.0000000000000000000, 0.0000000000000000000, 0.0000000000000000000 ) ) ;
#176 = DIRECTION ( 'NONE',  ( 3.491481338843133355E-15, -1.224646799147353207E-16, 1.000000000000000000 ) ) ;
#177 = EDGE_CURVE ( 'NONE', #61, #61, #158, .T. ) ;
#178 = CARTESIAN_POINT ( 'NONE',  ( 1.047444401652940007E-13, 0.5499999999999963807, 30.00000000000000000 ) ) ;
#179 = AXIS2_PLACEMENT_3D ( 'NONE', #35, #16, #212 ) ;
#180 = ORIENTED_EDGE ( 'NONE', *, *, #197, .T. ) ;
#181 = EDGE_LOOP ( 'NONE', ( #112 ) ) ;
#182 = APPLICATION_CONTEXT ( 'configuration controlled 3d designs of mechanical parts and assemblies' ) ;
#183 = CC_DESIGN_DATE_AND_TIME_ASSIGNMENT ( #67, #49, ( #172 ) ) ;
#184 = ORIENTED_EDGE ( 'NONE', *, *, #206, .F. ) ;
#185 = DIRECTION ( 'NONE',  ( 4.275831445896959482E-31, 1.000000000000000000, 1.224646799147353207E-16 ) ) ;
#186 = ORIENTED_EDGE ( 'NONE', *, *, #32, .F. ) ;
#187 = DIRECTION ( 'NONE',  ( 0.0000000000000000000, -1.000000000000000000, 0.0000000000000000000 ) ) ;
#188 = PRODUCT_RELATED_PRODUCT_CATEGORY ( 'detail', '', ( #45 ) ) ;
#189 = EDGE_LOOP ( 'NONE', ( #154 ) ) ;
#190 = VERTEX_POINT ( 'NONE', #178 ) ;
#191 = CARTESIAN_POINT ( 'NONE',  ( 3.910459099504309358E-14, 0.6899999999999979483, 11.19999999999999929 ) ) ;
#192 = CONICAL_SURFACE ( 'NONE', #123, 0.6899999999999985034, 1.047197551196592746 ) ;
#193 = CARTESIAN_POINT ( 'NONE',  ( 3.946743637939637517E-14, 0.7499999999999963363, 11.30392304845413065 ) ) ;
#194 = CC_DESIGN_PERSON_AND_ORGANIZATION_ASSIGNMENT ( #76, #209, ( #222 ) ) ;
#195 = CALENDAR_DATE ( 2021, 8, 10 ) ;
#196 = PERSON_AND_ORGANIZATION_ROLE ( 'creator' ) ;
#197 = EDGE_CURVE ( 'NONE', #106, #106, #72, .T. ) ;
#198 = PERSON_AND_ORGANIZATION ( #162, #125 ) ;
#199 = FACE_OUTER_BOUND ( 'NONE', #26, .T. ) ;
#200 = ORIENTED_EDGE ( 'NONE', *, *, #58, .T. ) ;
#201 = DIRECTION ( 'NONE',  ( 3.491481338843133355E-15, -1.224646799147353207E-16, 1.000000000000000000 ) ) ;
#202 = CARTESIAN_POINT ( 'NONE',  ( 1.390907306687643313E-15, -4.878646098134617340E-17, 0.3983716857408455270 ) ) ;
#203 = FACE_OUTER_BOUND ( 'NONE', #181, .T. ) ;
#204 = FACE_OUTER_BOUND ( 'NONE', #101, .T. ) ;
#205 = AXIS2_PLACEMENT_3D ( 'NONE', #50, #104, #185 ) ;
#206 = EDGE_CURVE ( 'NONE', #95, #95, #48, .T. ) ;
#207 = DIRECTION ( 'NONE',  ( 1.000000000000000000, 0.0000000000000000000, 0.0000000000000000000 ) ) ;
#208 = DIRECTION ( 'NONE',  ( -3.491481338843133355E-15, 1.224646799147353207E-16, -1.000000000000000000 ) ) ;
#209 = PERSON_AND_ORGANIZATION_ROLE ( 'creator' ) ;
#210 = CIRCLE ( 'NONE', #166, 0.5500000000000000444 ) ;
#211 = CC_DESIGN_APPROVAL ( #108, ( #222 ) ) ;
#212 = DIRECTION ( 'NONE',  ( 0.0000000000000000000, 1.000000000000000000, 0.0000000000000000000 ) ) ;
#213 = ADVANCED_FACE ( 'NONE', ( #204 ), #139, .T. ) ;
#214 = CALENDAR_DATE ( 2021, 8, 10 ) ;
#215 = PERSON_AND_ORGANIZATION ( #162, #125 ) ;
#216 = COORDINATED_UNIVERSAL_TIME_OFFSET ( 1, 0, .AHEAD. ) ;
#217 = APPROVAL_ROLE ( '' ) ;
#218 = CC_DESIGN_PERSON_AND_ORGANIZATION_ASSIGNMENT ( #81, #113, ( #17 ) ) ;
#219 = DIRECTION ( 'NONE',  ( -3.491481338843133355E-15, 1.224646799147353207E-16, -1.000000000000000000 ) ) ;
#220 = DIRECTION ( 'NONE',  ( -3.491481338843133355E-15, 1.224646799147353207E-16, -1.000000000000000000 ) ) ;
#221 = ORIENTED_EDGE ( 'NONE', *, *, #58, .F. ) ;
#222 = PRODUCT_DEFINITION ( 'UNKNOWN', '', #17, #40 ) ;
#223 = EDGE_LOOP ( 'NONE', ( #87 ) ) ;
ENDSEC;
END-ISO-10303-21;
